PrimaNota.ru - самый крупный в мире бесплатный архив песенных текстов, аккордов, табулатур и нот


This Side Of Town - My Life - таба, видео

Регистрация Запомнить меня
Войти через:  Facebook Google Twitter Vk Yandex Mail.ru

This Side Of Town - My Life - таба, видео

Печатать
Просмотров: 173
Уроки эстрадного вокала в Санкт-Петербурге
-------------------------------------------------------------------------------
                             MY LIFE - This Side of Town
-------------------------------------------------------------------------------
Tabbed by: Ryan Fournier

This Side of Town
http://thissideoftown.com

Tuning: Standard
BPM: 172

Intro(0:11-0:22)

e|------------------------------------------10-----------------10-----------|
B|---8------10------11------13---------10-------10---10---10------10---10---|
G|-----x8------x8------x8-------x8------------------------------------------|
D|---5------7-------8-------10-------0----0--------0----0----0-------0------|
A|--------------------------------------------------------------------------|
E|--------------------------------------------------------------------------|

e|----------8---------5--5--5--5--6--6--6--6--3-----------------------------|
B|------8------8---8--5--5--5--5--6--6--6--6--3-(ring out)------------------|
G|--------------------x--x--x--x--x--x--x--x--x-----------------------------|
D|---0----0------0----0--0--0--0--0--0--0--0--0-----------------------------|
A|--------------------------------------------------------------------------|
E|--------------------------------------------------------------------------|

Verse(0:45-1:06)
e|--------------------------------------------------------------------------|
B|---8-(delay)-------8-(delay)-------8-(delay)-------8-(delay)--------------|
G|---7---------------8---------------7---------------8----------------------|
D|--------------------------------------------------------------------------|
A|--------------------------------------------------------------------------|
E|--------------------------------------------------------------------------|

e|---------10-------------10-------------11-------------11------------------|_
B|-----8------8---8---8------8---8---8------8---8---8------8---8------------| | 
G|---7---7------7---7---7------7---8---8------8---8---8------8--------------| |
D|--------------------------------------------------------------------------| }----2x
A|--------------------------------------------------------------------------| |
E|--------------------------------------------------------------------------|-

Chorus(1:07-1:30)
e|------------------------------------------10-----------------10-----------|_
B|---8------10------11------13---------10-------10---10---10------10---10---| |
G|-----x8------x8------x8-------x8------------------------------------------| |
D|---5------7-------8-------10-------0----0--------0----0----0-------0------| |
A|--------------------------------------------------------------------------| |
E|--------------------------------------------------------------------------| |
                                                                              }----2x
e|----------8---------5--5--5--5--6--6--6--6--(3)---------------------------| |
B|------8------8---8--5--5--5--5--6--6--6--6--(3)-(Play on the second time)-| |
G|--------------------x--x--x--x--x--x--x--x--(x)-(Ring out)----------------| |
D|---0----0------0----0--0--0--0--0--0--0--0--(0)---------------------------| |
A|--------------------------------------------------------------------------| |
E|--------------------------------------------------------------------------|-

Verse(1:41-2:26)
e|--------------------------------------------------------------------------|_
B|---8-(delay)-------8-(delay)-------8-(delay)-------8-(delay)--------------| |
G|---7---------------8---------------7---------------8----------------------| |
D|--------------------------------------------------------------------------| }----2x
A|--------------------------------------------------------------------------| |
E|--------------------------------------------------------------------------|-

e|---------10-------------10-------------11-------------11------------------|_
B|-----8------8---8---8------8---8---8------8---8---8------8---8------------| | 
G|---7---7------7---7---7------7---8---8------8---8---8------8--------------| |
D|--------------------------------------------------------------------------| }----4x
A|--------------------------------------------------------------------------| |
E|--------------------------------------------------------------------------|-

Chorus(2:27-2:48)
e|------------------------------------------10-----------------10-----------|_
B|---8------10------11------13---------10-------10---10---10------10---10---| |
G|-----x8------x8------x8-------x8------------------------------------------| |
D|---5------7-------8-------10-------0----0--------0----0----0-------0------| |
A|--------------------------------------------------------------------------| |
E|--------------------------------------------------------------------------| |
                                                                              }----2x
e|----------8---------5--5--5--5--6--6--6--6--------------------------------| |
B|------8------8---8--5--5--5--5--6--6--6--6--------------------------------| |
G|--------------------x--x--x--x--x--x--x--x--------------------------------| |
D|---0----0------0----0--0--0--0--0--0--0--0--------------------------------| |
A|--------------------------------------------------------------------------| |
E|--------------------------------------------------------------------------|-

Bridge(2:52-3:11)
e|--------------------------------------------------------------------------|
B|---8-8-8---8-8-8---8-8-8---8-8-8------------------------------------------|
G|----------------------------------2x----------------5*(@3:02)-------------|
D|---5-5-5---5-5-5---5-5-5---5-5-5------------------------------------------|
A|--------------------------------------------------------------------------|
E|--------------------------------------------------------------------------|

e|--------------------------------------------------------------------------|
B|---8-8-8-8-8-8-8-8------8--8--8--8--8--8--8--8--10-10-10-10-11-11-11-11---|
G|-------------------2x-----------------------------------------------------|
D|---5-5-5-5-5-5-5-5------5--5--5--5--5--5--5--5--7--7--7--7--8--8--8--8----|
A|--------------------------------------------------------------------------|
E|--------------------------------------------------------------------------|

e|--------------------------------------------------------------------------|
B|--------------------------------------------------------------------------|
G|---12-12-12-12/7-7-7-7/12-12-12-12/7-7-7-7/12-----------------------------|
D|--------------------------------------------------------------------------|
A|---10-10-10-10/5-5-5-5/10-10-10-10/5-5-5-5/10-----------------------------|
E|--------------------------------------------------------------------------|

Final Chorus Part I(3:13-3:34)
e|------------------------------------------10-----------------10-----------|_
B|---8------10------11------13---------10-------10---10---10------10---10---| |
G|-----x8------x8------x8-------x8------------------------------------------| |
D|---5------7-------8-------10-------0----0--------0----0----0-------0------| |
A|--------------------------------------------------------------------------| |
E|--------------------------------------------------------------------------| |
                                                                              }----2x
e|----------8---------5--5--5--5--6--6--6--6--------------------------------| |
B|------8------8---8--5--5--5--5--6--6--6--6--------------------------------| |
G|--------------------x--x--x--x--x--x--x--x--------------------------------| |
D|---0----0------0----0--0--0--0--0--0--0--0--------------------------------| |
A|--------------------------------------------------------------------------| |
E|--------------------------------------------------------------------------|-

Solo(3:35-3:46)
e|--------------------------------------------------------------------------|
B|--------------------------------------------------------------------------|
G|--------------------------------------------------------------------------|
D|---5-5-5-5-5-3-5---7-7-7-7-7-5-7---8-8-8-8-8-7-8---10-10-10-10-10-8-10----|
A|--------------------------------------------------------------------------|
E|--------------------------------------------------------------------------|

e|---------------------------------------------------------------------------------------|
B|---------------------------------------------------------------------------------------|
G|-----------------------------------------8-0-0-8-0-0-8-0-8-0-5-0-5-0h2h3p0-5p3p2h3p0---|
D|---12-0-0-12-0-0-12-0-12-0-0-12-0-0-12-0-----------------------------------------------|
A|---------------------------------------------------------------------------------------|
E|---------------------------------------------------------------------------------------|

Final Chorus Part II(3:49-4:10)
e|----------------10----------------10------------------8---------5--5--5--5--6--6--6--6--3-------------|
B|-----------10-------10---10---10------10---10-----8------8---8--5--5--5--5--6--6--6--6--3-(ring out)--|
G|--8-------------------------------------------------------------x--x--x--x--x--x--x--x--x-------------|
D|----16x--0----0--------0----0----0-------0-----0----0------0----0--0--0--0--0--0--0--0--0-------------|
A|--6---------------------------------------------------------------------------------------------------|
E|------------------------------------------------------------------------------------------------------|


************************************

| /   slide up
| \   slide down
| h   hammer-on
| p   pull-off
| ~   vibrato
| +   harmonic
| x   Mute note
| b   Bend
| pb  Pre-bend
| br  Bend release
| pbr Pre-bend release
| brb Bend release bend

************************************
Добавлено: 03.08.2015
Вам также может быть интересно:
Другие материалы по этой песне:
  • Аккорды и текст

Страница создана 03.08.2015
http://primanota.ru/this-side-of-town/my-life-chords.htm
Привет, Гость.
Предлагаем пройти революционный курс по гитаре.
Подарок от PrimaNota.Ru, забирай!