PrimaNota.ru - самый крупный в мире бесплатный архив песенных текстов, аккордов, табулатур и нот


This Providence - Your Mine - аккорды и текст, видео

Регистрация Запомнить меня
Войти через:  Facebook Google Twitter Vk Yandex Mail.ru

This Providence - Your Mine - аккорды и текст, видео

Печатать
Просмотров: 73
Your Mine
This Providence
-------------------------------------------------------------------------------
                             Your mine - This Providence
-------------------------------------------------------------------------------

Tuning: Half step down (Capo on the seventh fret) How he plays it 
X=Slap

Notable Chords 
   C7     F     Fm   Caug
e|--0--|--0--|-----|--1--|
B|--1--|--1--|--1--|--1--|
G|--3--|--2--|--1--|--1--|
D|--2--|--3--|--3--|--2--|
A|--3--|--3--|--3--|--3--|
E|-----|-----|-----|-----|


 Intro 
e|---------------------------------------------------------------------------|
B|---8-x--8~-----8-x-10--8~-----8-X-8~-----6-X-8--6--------------------------|
G|---0-x--0~-----0-x--0--0~-----0-X-0~-----0-X-0--0--------------------------|
D|--10-x-10~-----9-x--9--9~-----8-X-8~-----7-X-7--7--------------------------|
A|--10---10~----10---10-10~-----8---8~-----8---8--8--------------------------|
E|---------------------------------------------------------------------------|

e|---------------------------------------------------------------------------|
B|---6-x--6~-----5-x--6--5~-----3--6-0--1------------------------------------|
G|---0-x--0~-----0-x--0---~-----0--0----0------------------------------------|
D|---6-x--6~-----5-x--5--5~-----5--7----2------------------------------------|
A|---7----7~-----7----7--7~-----5--8----3------------------------------------|
E|---------------------------------------------------------------------------|


Verse:

C                   C7
      Never thought You would be caught
          F           Fm                      C
Right her lying in my arms by the light of the tv
C                       C7
What do you see when you sleep, when you dream
            F             Fm                   G
in this old tilted little house under the ever greens

Chorus:
        C          C7
For the rest of my life 
F               Fm
You'll be on my side
C                  G                      C         G
With every turning page I'll be wondering, why?
C           C7
If I stole a kiss
F                 Fm
From those patient lips
C                G                      F
I won't sleep tonight I'll be wondering, Why?
C
Your mine

Interlude: Same as chorus

Verse 2:

C                 C7
Wake me up in the morning just
         F              Fm                        C
So I can watch you slip into your favorite summer dress Hand me my
C             C7
Empty pockets lost cigarettes
              F                 Fm     G
I still don't see just what you saw in this mess

Chorus:
        C          C7
For the rest of my life 
F               Fm
You'll be on my side
C                  G                      C         G
With every turning page I'll be wondering, why
C           C7
If I stole a kiss
F                 Fm
From those patient lips
C                G                      F
I won't sleep tonight I'll be wondering Why
                     Fm
Yeah I'll be wondering why?

Bridge chords: Am G F 
               F(barred) Em G
               end on Em

Chorus:
        C          C7
For the rest of my life 
F               Fm
You'll be on my side
C                  G                      C         G
With every turning page I'll be wondering, why
C           Caug
If I stole a kiss
Am                 D
From those patient lips
C                G                      F
I won't sleep tonight I'll be wondering, Why
                     Fm (let ring)
Yeah I'll be wondering why

Your mine

Repeat intro

There you have it Enjoy :)
Добавлено: 07.07.2013
Другие материалы по этой песне:
  • Аккорды и текст

Страница создана 07.07.2013
http://primanota.ru/this-providence/your-mine-chords.htm
Привет, Гость.
Предлагаем пройти революционный курс по гитаре.
Подарок от PrimaNota.Ru, забирай!