PrimaNota.ru - самый крупный в мире бесплатный архив песенных текстов, аккордов, табулатур и нот


This Many Boyfriends - Starling - аккорды и текст, видео

Регистрация Запомнить меня
Войти через:  Facebook Google Twitter Vk Yandex Mail.ru

This Many Boyfriends - Starling - аккорды и текст, видео

Печатать
Просмотров: 28
Уроки эстрадного вокала в Санкт-Петербурге
Starling
This Many Boyfriends
STARLING
by this many boyfriends
from their album 'this many boyfriends'

tabbed by drew (iamdrew@gmail.com)

turn the jangle up for this one, kids.  super fun and easy to play.

where i've put Am twice, that means two bars of Am.  it's not obvious otherwise

(capo 2)


CHORDS

     E A D G B e
     -----------
G    3 2 0 0 3 3 
Am   x 0 2 2 1 0
C    x 3 2 0 1 0
D    x x 0 2 3 2
Em   0 2 2 0 0 0


INTRO

it might be up an octave from this, but i'm sure i've gotten the notes right...

      G               Am                    Am            D

e-|-------------------7-----------------------------------5---------------------------|-
B-|----------8--7--8-------8--7--8--10--8--------7--5--7--------7--5--7--8--7---------|-
G-|-----------------------------------------------------------------------------------|-
D-|-----------------------------------------------------------------------------------|-
A-|-----------------------------------------------------------------------------------|-
E-|-----------------------------------------------------------------------------------|-

e-|-------------------7-----------------------------------5---------------------------|-
B-|----------8--7--8-------8--7--8--10--8--------7--5--7--------7--5--7--8--7----8----|-
G-|-----------------------------------------------------------------------------------|-
D-|-----------------------------------------------------------------------------------|-
A-|-----------------------------------------------------------------------------------|-
E-|-----------------------------------------------------------------------------------|-



VERSE

G               Am               Am         D
we both cut our hair short
   G           Am                Am         D
to fit our new t-shirts
         G            Am         Am         D
we spent years in the bathroom
G                 Am             Am         D
cutting hair 'til we were new


PRE-CHORUS

e-|------------------------------|-
B-|-----3--1--0------------------|-
G-|--------------2--0----0--0----|-
D-|------------------------------|-
A-|------------------------------|-
E-|------------------------------|- x 5

e-|----------------------------------------0--2---|-
B-|-----3--1--0-------------------0--1--3---------|-
G-|--------------2--0-------0--2------------------|-
D-|----------------------4------------------------|-
A-|-----------------------------------------------|-
E-|-----------------------------------------------|- x 1


Em
i think you have the soul of a new born
Am 
    so precious, so tidy and clean
C   
we spend our days in a stupor
    D
and i was so delicate and mean


CHORUS

    C (p.m.)       D (p.m)
and we will live together for a long time
    C (p.m.)       D (p.m)                 G
and we will live together for a long time


REPRISE INTRO


VERSE

G      Am        Am            D             
    we wrote our names in the garden
G                   Am     Am        D
    with sticks and ice we made our mark
G                     Am   Am           D         
    if the lake dries up before we are done
     G      Am         Am    D
then i will not be the only one


PRE-CHORUS

Em 
i think you have the soul of a starling
Am
     so precious, so careful and clean
C
we spend our days in a stupor
    D
and i was so delicate and mean


CHORUS

    C (p.m.)       D (p.m)
and we will live together for a long time
    C (p.m.)       D (p.m)
and we will live together for a long time
    C              D      
and we will live together for a long time
    C              D 
and we will live together for a long time
    C              D      
and we will live together for a long time (bababadabababababada)
    C              D 
and we will live together for a long time (bababadabababababada)
    C              D      
and we will live together for a long time (bababadabababababada)
    C              D 
and we will live together for a long time (bababadabababababada)


then, SOLO (no tab, sorry)

--

link to song for the approvers:  https://www.youtube.com/watch?v=pg0nCLO9yz4



Добавлено: 08.04.2016
Другие материалы по этой песне:
  • Аккорды и текст

Страница создана 08.04.2016
http://primanota.ru/this-many-boyfriends/starling-chords.htm
Привет, Гость.
Предлагаем пройти революционный курс по гитаре.
Подарок от PrimaNota.Ru, забирай!