PrimaNota.ru - самый крупный в мире бесплатный архив песенных текстов, аккордов, табулатур и нот


This Love - Motions - таба, видео

Регистрация Запомнить меня
Войти через:  Facebook Google Twitter Vk Yandex Mail.ru

This Love - Motions - таба, видео

Печатать
Просмотров: 82
Before you play a couple of things to note:

1)This is my first tab so befor going off and braging you know this song
check accuracy to track (although I'm pretty sure this is right)

2)The Intro Riff is origanally played on keys but I transposed
it to guitar if anyone wants to play threw with only one instrument

3)I left the most chords out, except those in solo, so it only shows the parts picked 
out(full solo and piano intro)

4)Have fun and thank you for choosing JCrash121 tabs and stuff

Intro Riff
E|-----------------------------------------------------------------|
B|-----------------------------------------------------------------|
G|-----------10-------------10-------------10-------------10-------|
D|---10--12----12---10--12----10---10--12----12---10--12-----10----|
A|-----------------------------------------------------------------|
E|-----------------------------------------------------------------|





Solo
|-------------------------------------------------------------------|
|-------------------------------------------------------------------|
|-----------10-----------------9-10-9-------------------------------|
|---10--12------12-----10--12-----------10/12--10-------------------|
|-------------------------------------------------------------------|
|-------------------------------------------------------------------|

|--------------------------------------------------------------------|
|-----------10----8-------------------10-----10-----10------------8--|
|--------10---------------------10----------------------12--8--10----|
|--10H12------------------10H12----------12------12------------------|
|--------------------------------------------------------------------|
|--------------------------------------------------------------------|

|--------------------------------------------------------------------|
|-------------------------------10/13-13-12-10-8-----8-10------------|
|---10/12--10--10/13--12-10-8---------------------10--------8--------|
|--------------------------------------------------------------10----|
|--------------------------------------------------------------------|
|--------------------------------------------------------------------|

|---------------------------------------------------------------------|
|---------------13-13-13-13-13-13-13-13-15-15-15-15-15-15-15-15-------|
|---------------12-12-12-12-12-12-12-12-14-14-14-14-14-14-14-14-------|
|--8-------8----14-14-14-14-14-14-14-14-------------------------------|
|-----10-8------12-12-12-12-12-12-12-12-------------------------------|
|---------------------------------------------------------------------|

|--------------------------------------------------------------------|
|-17-17-17-18-18-18-19-19-19-20-20-20-20AH---20B--20AH-20-20-20------|
|-16-16-16-17-17-17-18-18-18-19-19-19-19B----19B-------19-19-19------|
|--------------------------------------------------------------------|
|--------------------------------------------------------------------|
|--------------------------------------------------------------------|

|------------------------------------------------------------------|
|--20AH-20B-20B-20B-20B-20B-20B---18H20P18-16----------------------|
|-------19B-19B-19B-19B-19B-19B------------------------------------|
|------------------------------------------------------------------|
|-------------------------------------------------15B--------------|
|-------------------------------------------------17B--------------|

|-----------------------------------------------------------------|
|-----------------------------------------------------------------|
|-----------------------------------------------------------------|
|------------------14-12-12-14-12-14-12-12-14-12--------12--------|
|--15-14H15P14----------------------------------------------------|
|-----------------------------------------------------------------|


************************************
| /   slide up
| \   slide down
| H   hammer-on
| P   pull-off
| AH  artificial harmonic
| B   Bend
************************************
Добавлено: 26.06.2013
Другие материалы по этой песне:
  • Аккорды и текст

Страница создана 12.06.2013
http://primanota.ru/this-love/motions-chords.htm
Привет, Гость.
Предлагаем пройти революционный курс по гитаре.
Подарок от PrimaNota.Ru, забирай!