PrimaNota.ru - самый крупный в мире бесплатный архив песенных текстов, аккордов, табулатур и нот


This Is Me Smiling - Losin It More - таба, видео

Регистрация Запомнить меня
Войти через:  Facebook Google Twitter Vk Yandex Mail.ru

This Is Me Smiling - Losin It More - таба, видео

Печатать
Просмотров: 10
Note: any notes not included should be muted.

Intro:

E|---------9------9-----9------9------9------------------
B|--9--12-----12-----9----------------------9---------9--
G|-------------------------12-----11-----9------------9--
D|---------------------------------------------9--11-----
A|-------------------------------------------------------
E|-------------------------------------------------------



E|-----------------------------------------------------
B|-----------------------------------------------------
G|-----------------------------------------------------
D|--11--11--9--9---------------------------------------
A|----------------11--11--10--10--9--9--7--7-----------
E|--------------------------------------------9--9--7--



E|--------2-----------5-----------------------
B|--------2-----------5--------7--8--9(*)--9--
G|--------2-----------5--------7--8--9-----9--
D|--------4-----------7-----------------------
A|--------4-----------7-----------------------
E|--0--2--2--------5--5-----------------9--9--

(*): Play this part with your ring and pinkie.



E|--7--9-----------7--------------7-----
B|--7--9--------------------------------
G|-----------6--8--------6--8--------8--
D|--------------------------------------
A|--------------------------------------
E|--------7(*)--------7--------7--------

(*): Play this note with your thumb.



E|-----------5-----------4--4--------------2-----
B|-----------5-----------7--------5-----------5--
G|--7--------6-----------5-----------3-----------
D|--7--------7-----------------------------------
A|--5--------7-----------6-----------------------
E|-----------5--------4--4--------------2--------

Bar the 4th fret and hammer on the C# minor chord:

E|--4--4--
B|--4--5--
G|--4--6--
D|--4--6--
A|--4--4--
E|--------

"Every little thing...":

E|-------------------------------4--
B|--9--------12--------12--------4--
G|--9------------------10--------5--
D|--9--------13--------11--------6--
A|--7----------------------------6--
E|-----------11--------9---------4--

"I'm losing it more...":

E|--0--------------------4-----------------0--
B|--0--------------------4-----------------0--
G|--1--------------------5-----------------1--
D|--2--------------------6-----------------2--
A|--2--------------------6-----------------2--
E|--0--------0--2--3--4--4-----4--3--2--0--0--



E|--------------------------------------------
B|--------------------------------------------
G|-----------------8--8--9--8--9--8--9--8--9--
D|--------------------------------------------
A|-----------------9--9--9--9--9--9--9--9--9--
E|--0--2--4--6--7--7--7--7--7--7--7--7--7--7--

Ends like this:

E|-----------------------
B|-----------9---9---9---
G|--8--8--8--------------
D|-----------10--10--10--
A|--9--9--9--------------
E|--7--7--7--8---8---8---

Back to the intro.

Some of these chords are strange so I'm not sure if they're right.
Добавлено: 16.04.2016
Другие материалы по этой песне:
  • Аккорды и текст

Страница создана 16.04.2016
http://primanota.ru/this-is-me-smiling/losin-it-more-chords.htm
Привет, Гость.
Предлагаем пройти революционный курс по гитаре.
Подарок от PrimaNota.Ru, забирай!