PrimaNota.ru - самый крупный в мире бесплатный архив песенных текстов, аккордов, табулатур и нот


This Is Head - Xiv - таба, видео

Регистрация Запомнить меня
Войти через:  Facebook Google Twitter Vk Yandex Mail.ru

This Is Head - Xiv - таба, видео

Печатать
Просмотров: 27
-------------------------------------------------------------------------------
                             XIV - THIS IS HEAD
-------------------------------------------------------------------------------
Tabbed by: Jon Claes Henry
E-mail: enkelt.music@gmail.com

Tuning: The standard tuning for a guitar

e|---------------------------------------------------------------------------|
B|--0--1--3--7----8--5-------------------------------------------------------|
G|---------------------------------------------------------------------------|
D|--------------------------x4-----------------------------------------------|
A|-----0--2--5----7--3-------------------------------------------------------|
E|--3------------------------------------------------------------------------|

e|---------------------------------------------------------------------------|
B|--12--10--8--7--8--5-------------------------------------------------------|
G|---------------------------------------------------------------------------|
D|--------------------------x2-----------------------------------------------|
A|--10--9---7--5--7--3-------------------------------------------------------|
E|---------------------------------------------------------------------------|

e|---------------------------------------------------------------------------|
B|--0--1--3--7----8--5-------------------------------------------------------|
G|---------------------------------------------------------------------------|
D|--------------------------x2-----------------------------------------------|
A|-----0--2--5----7--3-------------------------------------------------------|
E|--3------------------------------------------------------------------------|

e|---------------------------------------------------------------------------|
B|--12--10--8--7--8--5-------------------------------------------------------|
G|---------------------------------------------------------------------------|
D|--------------------------x2-----------------------------------------------|
A|--10--9---7--5--7--3-------------------------------------------------------|
E|---------------------------------------------------------------------------|
 

e|---------------------------------------------------------------------------|
B|---------------------------------------------------------------------------|
G|---------------------------------------------------------------------------|
D|---------------------------------------------------------------------------|
A|--5--2--5--10--12--5--2--5--10--12--10--12--7--5--2--5--10--12-------------|
E|---------------------------------------------------------------------------|

e|---------------------------------------------------------------------------|
B|---------------------------------------------------------------------------|
G|---------------------------------------------------------------------------|
D|---------------------------------------------------------------------------|
A|---------------------------------------------------------------------------|
E|--3--8--5--8-3--8--5--8-3--8--5--8-3--8--5--8------------------------------|

e|---------------------------------------------------------------------------|
B|--0--1--3--7----8--5-------------------------------------------------------|
G|---------------------------------------------------------------------------|
D|--------------------------x2-----------------------------------------------|
A|-----0--2--5----7--3-------------------------------------------------------|
E|--3------------------------------------------------------------------------|

e|---------------------------------------------------------------------------|
B|--12--10--8--7--8--5-------------------------------------------------------|
G|---------------------------------------------------------------------------|
D|--------------------------x2-----------------------------------------------|
A|--10--9---7--5--7--3-------------------------------------------------------|
E|---------------------------------------------------------------------------|


************************************

| /   slide up
| \   slide down
| h   hammer-on
| p   pull-off
| ~   vibrato
| +   harmonic
| x   Mute note
| b   Bend
| pb  Pre-bend
| br  Bend release
| pbr Pre-bend release
| brb Bend release bend

************************************
Добавлено: 23.12.2015
Вам также может быть интересно:
Другие материалы по этой песне:
  • Аккорды и текст

Страница создана 23.12.2015
http://primanota.ru/this-is-head/xiv-chords.htm
Привет, Гость.
Предлагаем пройти революционный курс по гитаре.
Подарок от PrimaNota.Ru, забирай!