PrimaNota.ru - самый крупный в мире бесплатный архив песенных текстов, аккордов, табулатур и нот


This Bike Is A Pipe Bomb - Johnny - аккорды и текст, таба, видео

Регистрация Запомнить меня
Войти через:  Facebook Google Twitter Vk Yandex Mail.ru

This Bike Is A Pipe Bomb - Johnny - аккорды и текст, таба, видео

Печатать
Просмотров: 83
Johnny
This Bike Is A Pipe Bomb
----------------------------------------------------------------------------
                             JOHNNY - This Bike Is A Pipe Bomb
----------------------------------------------------------------------------
Tabbed by: Tom
Email: revolution.rocker@gmail.com

Tuning: Standard

Ok, I'm not really 100% sure about this. It's The first time
I've tried to tab a song with no other parts to work off of, 
but I figured I might as well give it a shot.

Chords:
   C  G  F  Am Em
e|-0--3--1--0--0--|
B|-1--3--1--1--0--|
G|-0--0--2--2--0--|
D|-2--0--3--2--2--|
A|-3--2--3--0--2--|
E|----3--1-----0--|

Intro
e|--0--0-0-0-------0--0-0---------|Play this twice
B|--1--1-1-1-------1--1-1-1/3-3\1-|
G|--0--0-0-0-------0--0-0---------|
D|--2--2-2-2-------2--2-2---------|
A|--3--3-3-3-0-3/5-3--3-3---------|
E|--------------------------------|
   
e|-3--3-3-3--|--|-1--1-1-1--1-1-1---------------------|
B|-3--3-3-3--|--|-1--1-1-1--1-1-1--/10-----10---------|
G|-0--0-0-0--|--|-2--2-2-2--2-2-2--/10--------10------|
D|-0--0-0-0--|x4|-3--3-3-3--3-3-3--/10-----------10---|
A|-2--2-2-2--|--|-3--3-3-3--3-3-3--/-8----------------|
E|-3--3-3-3--|--|-1--1-1-1--1-1-1---------------------|

Then play: C    G     F    G       (Listen to the song for strumming)

C
Johnny, how's the Navy?

Am
I hear you're doing well. 

F                                   G
Didn't you get trained to fly those fighter planes? 

C                               Am
They'll send you to Kosovo in a week or two. 

F       C       G     F
Johnny, why you gonna go? 

C                           G
Do you really know? You say no. 

C                          G
There's a war that's going on, 

                Am              F
they say it's a brand new Vietnam. 

C              G              Em
Don't you feel proud to be an American now? 

C                                     G  
The same GI bill that put you through college 

      Am                  F 
put a million boys in the graves. 

C             G              Em
Dont you feel proud to be an American now? 

C      G         Am         F
So God bless the good ol' USA.

C   G         Am  G C~
God bless the USA.

That's it. 
Feel free to e-mail me if you have any corrections.
Добавлено: 28.05.2012
Другие материалы по этой песне:
  • Аккорды и текст

Страница создана 28.05.2012
http://primanota.ru/this-bike-is-a-pipe-bomb/johnny-chords.htm
Привет, Гость.
Предлагаем пройти революционный курс по гитаре.
Подарок от PrimaNota.Ru, забирай!