PrimaNota.ru - самый крупный в мире бесплатный архив песенных текстов, аккордов, табулатур и нот


This Beautiful Republic - Pain - таба, видео

Регистрация Запомнить меня
Войти через:  Facebook Google Twitter Vk Yandex Mail.ru

This Beautiful Republic - Pain - таба, видео

Печатать
Просмотров: 57
Gtr 1: Electric: Eb tunning
Gtr 2: Electric: Drop Db tunning
Gtr 3: Acoustic: Eb tunning
Gtr 4: Electric: Eb tunning

Gtr 1: (Intro Only)    Gtr 2: I & Vs (x6)           Gtr 3: I & Vs (x5) (0:06)
-------------------|   -------------------------|   -3-----3----------------|
-------------------|   -------------------------|   -3-----3----------------|
-------------------|   -------------------------|   -0-----0----------------|
-5-75-5-75—7/95-75-|   ---4-5---4-5---4-2---4-2-|   -------2----------------|
-------------------|   -------------------------|   -2-----2----------------|
-------------------|   -5-----5-----2-----2-----|   -3-----0----------------|
                                                   (x16) (x16)
Chorus: 
Gtr 1:           Gtr 2:            Gtr 3: (Strum Accordingly) [x4]
-------------|   --------------|   -0--2--0----------------------|
---8---7---8-|   --------------|   -3--3--0----------------------|
-5---7---9---|   --------------|   -0--2--0----------------------|
-------------|   --------------|   -2--0--2----------------------|
-------------|   -3-5-7--3-5---|   -3--0--2----------------------|
-------------|   ------------2-|   -------0----------------------|
                  (x3)

Post-Chorus:
Gtr 1: (x2)                      Gtr 2: (x2)
--------------------------------|   --------------------|
--------------------------------|   --------------------|
--------------------------------|   --------------------|
-4-5555--4-5555--4-2222--4-2222-|   -55-55555--22-22222-|
--------------------------------|   -55-55555--22-22222-|
--------------------------------|   -55-55555--22-22222-|

Verse 2:
Gtr 1: (x3) [All mutes for both]
-------------------------------------------------------------------|
-------------------------------------------------------------------|
11-11-12-12-12-12--11-11-12-12-12-12--11-11-9-9-9-9--11-11-9-9-9-9-|
-------------------------------------------------------------------|
-9-9--10-10-10-10---9-9--10-10-10-10---9-9--7-7-7-7---9-9--7-7-7-7-|
-------------------------------------------------------------------|

Verse 2:
Gtr 1: (Con…) [Do above x3 and then do this]       Gtr 3: End of Vs 2
----------------------------------------------------|   --0-----------------|
----------------------------------------------------|   --0-----------------|
11-11-12-12-12-12--11-11-12-12-12-12--11-11-9-9-9-9-|   --0-----------------|
----------------------------------------------------|   --2-----------------|
-9-9--10-10-10-10---9-9--10-10-10-10---9-9--7-7-7-7-|   --2-----------------|
----------------------------------------------------|   --0-----------------|

Chorus 2
Gtr 1: (x16) [Comes after 1st 14 by gtr 2] {w/variations}
--------------------------------------------------------------|
-9-9--sometimes—(9-9-12-11-9-9)-------------------------------|
--------------------------------------------------------------|
--------------------------------------------------------------|
--------------------------------------------------------------|
--------------------------------------------------------------|

Chorus 2
Gtr 2:
--------------------------------------------------------------------------|
--------------------------------------------------------------------------|
-12-12--14-14--16-16--12-12--7-7--4-4--12-12--7-7--4-4--12-12--14-14--16/-|
-10-10--12-12--14-14--10-10--0-0--2-2--10-10--0-0--2-2--10-10--12-12--14/-|
-10-10--12-12--14-14--10-10--0-0--2-2--10-10--0-0--2-2--10-10--12-12--14/-|
-10-10--12-12--14-14--10-10--0-0--2-2--10-10--0-0--2-2--10-10--12-12--14/-|
 (x8)   (x8)   (x16)  (x8)   (x8)(x16) (x8)   (x8)(x16)  (x8)   (x8)


Chorus 2
Gtr 4:
-------------------------------------------------12-12-12-10-10-10-14-14-14-|
-13-13-13-12-12-12-15-15-15-12-12-12-13-13-13-13----------------------------|
----------------------------------------------------------------------------|
----------------------------------------------------------------------------|
----------------------------------------------------------------------------|
----------------------------------------------------------------------------|

Chorus 2
Gtr 4: (Con…)
-10-10-10-12-12-12-12/15-15-15-14-14-14-17-17-17-14-14-14-15-15-15-15-19-19-|
----------------------------------------------------------------------------|
----------------------------------------------------------------------------|
----------------------------------------------------------------------------|
----------------------------------------------------------------------------|
----------------------------------------------------------------------------|

Chorus 2
Gtr 4: (Con…)
-19-20-20-20-19-19-19-17-17-17-15-15-15/------------------------------------|
----------------------------------------13-13-13-12-12-12-15-15-15-12-12-12-|
----------------------------------------------------------------------------|
----------------------------------------------------------------------------|
----------------------------------------------------------------------------|
----------------------------------------------------------------------------|

Chorus 2
Gtr 4: (Con…)
----------12-12-12-12-10-10-10-14-14-14-10-10-10-12-12-12-12/15-15-15-14-14-|
-13-13-13-------------------------------------------------------------------|
----------------------------------------------------------------------------|
----------------------------------------------------------------------------|
----------------------------------------------------------------------------|
----------------------------------------------------------------------------|

Chorus 2
Gtr 4: (Con…)
-14-17-17-17-14-14-14-15-15-15-15-20-20-20-19-19-19/15-15-15-15-15-15-15-15-|
----------------------------------------------------------------------------|
----------------------------------17-17-17-16-16-16/12-12-12-12-12-12-12-12-|
----------------------------------------------------------------------------|
----------------------------------------------------------------------------|
----------------------------------------------------------------------------|

Chorus 2
Gtr 4: (Con…)
-20-20-20-19-19-19----------------------------------20-20-20-19-19-19-15-15-|
-------------------15-15-15-17-17-17-17-17-17-17-17-------------------------|
-17-17-17-16-16-16----------------------------------17-17-17-16-16-16-12-12-|
-------------------12-12-12-14-14-14-14-14-14-14-14-------------------------|
----------------------------------------------------------------------------|
----------------------------------------------------------------------------|

Chorus 2
Gtr 4: (Con…) [Let last notes ring]
-15-15-15-15-15-15-20-20-20-19-19-19-------------------------------------|
-------------------------------------15-15-15-17-17-17-17-17-17-17-17-19-|
-12-12-12-12-12-12-17-17-17-16-16-16-------------------------------------|
-------------------------------------12-12-12-14-14-14-14-14-14-14-14-16-|
-------------------------------------------------------------------------|
-------------------------------------------------------------------------|

Bridge
Gtr 3: (Strum accordingly) {() = not accented} [x2]
-0------(0)------0------(000)--------------------------|
-1---111-1---333-0---111-111-11------------------------|
-2---000-0---000-0---000-000-00------------------------|
-2---xxx-2---444-2---xxx-222-xx------------------------|
-0...222-3...555-2---222-333-22------------------------|
-----------------0...----------------------------------|

Bridge:
Gtr 1:
-7-3---------7-3------------------------------------------------------------|
----3-5-3-5-3---3-5-7/8-----------------------------------------------------|
----------------------------------------------------------------------------|
----------------------------------------------------------------------------|
----------------------------------------------------------------------------|
----------------------------------------------------------------------------|

Bridge:
Gtr 2: (2:45) [For the 9s start with mutes then crescendo]
-------------------------------------------------------|
-------------------------------------------------------|
-----------------------9-9-9-9-11-11-11-11-12-12-12-12-|
-----10-10-12-12-14-14---------------------------------|
-----10-10-12-12-14-14-7-7-7-7--9--9--9--9-10-10-10-10-|
-9-9-10-10-12-12-14-14---------------------------------|
(x16)(x16) (x16) (x16)


Bridge:
Gtr 2: (Con…)
-------------------------|
-------------------------|
-16-16-16-16-16-16-16-16-|
-------------------------|
-14-14-14-14-14-14-14-14-|
-------------------------|

After this just repeat the chorus (end of chorus has a slight variation) and then do intro. :)

Anyway that's it enjoy 
Добавлено: 23.06.2013
Другие материалы по этой песне:
  • Аккорды и текст

Страница создана 14.06.2013
http://primanota.ru/this-beautiful-republic/pain-chords.htm
Привет, Гость.
Предлагаем пройти революционный курс по гитаре.
Подарок от PrimaNota.Ru, забирай!