PrimaNota.ru - самый крупный в мире бесплатный архив песенных текстов, аккордов, табулатур и нот


This Beautiful Republic - Casting Off - таба, видео

Регистрация Запомнить меня
Войти через:  Facebook Google Twitter Vk Yandex Mail.ru

This Beautiful Republic - Casting Off - таба, видео

Печатать
Просмотров: 73
Band: This Beautiful Republic
Song: Casting Off
Tabber: codycoffey
Email: codycoffey07@yahoo.com
Tuning: Drop Db (Db Ab Db Gb Bb Eb)


Intro x1


(Guitar 1)
Eb|----------------------------------------------------------------|
Bb|----------------------------------------------------------------|
Gb|----------------------------------------------------------------|
Db|--2-2-2-2--5-5-5-5-----------4-4-4-4-----------7-7-7-7----------|
Ab|--------------------0-0-0-0-----------2-2-2-2-----------2-2-2-2-|
Db|----------------------------------------------------------------|

Eb|---------------|
Bb|---------------|
Gb|---------------|
Db|-9--7-7-7-7----|
Ab|---------------|
Db|---------------|


Pre-Verse x1

(Guitar 1)
Eb|----------------------------------------------------------------|
Bb|----------------------------------------------------------------|
Gb|----------------------------------------------------------------|
Db|--2-2-2-2--5-5-5-5-----------4-4-4-4----------------------------|
Ab|--------------------0-0-0-0-----------2-2-2-2--0-0-0-0--2-2-2-2-|
Db|----------------------------------------------------------------|

Eb|---------------|
Bb|---------------|
Gb|---------------|
Db|---------------|
Ab|-0-0-0-0-------|
Db|---------------|


(Guitar 2)
Eb|-------------------------------------------------------------|
Bb|--12-12--12-10-12-10--12-12--12-10-12-10----15-15--15-15-15--|
Gb|--11-11--11-11-11-11--11-11--11-11-11-11----14-14--14-14-14--|
Db|-------------------------------------------------------------|
Ab|-------------------------------------------------------------|
Db|-------------------------------------------------------------|

Eb|--------------------|
Bb|-15-15--15-14-14----|
Gb|-14-14--14-14-14----|
Db|--------------------|
Ab|--------------------|
Db|--------------------|

Verse

(Guitar 1) 3x
Eb|----------------------------------------------------------------|
Bb|----------------------------------------------------------------|
Gb|----------------------------------------------------------------|
Db|--2-2-2-2--5-5-5-5-----------4-4-4-4-----------7-7-7-7----------|
Ab|--------------------0-0-0-0-----------2-2-2-2-----------2-2-2-2-|
Db|----------------------------------------------------------------|

Eb|---------------|
Bb|---------------|
Gb|---------------|
Db|-9--7-7-7-7----|
Ab|---------------|
Db|---------------|


(Guitar 2)
Eb|-------------------------------------------------------------|
Bb|--12-12-12-12-12-12-12-12----15-15-15-15-15-15--15-14-14-----|
Gb|--11-11-11-11-11-11-11-11----14-14-14-14-14-14--14-14-14-----|
Db|-------------------------------------------------------------|
Ab|-------------------------------------------------------------|
Db|-------------------------------------------------------------|x2

Eb|-------------------------------------------------------------|
Bb|--12-12--12-10-12-10--12-12--12-10-12-10----15-15--15-15-15--|
Gb|--11-11--11-11-11-11--11-11--11-11-11-11----14-14--14-14-14--|
Db|-------------------------------------------------------------|
Ab|-------------------------------------------------------------|
Db|-------------------------------------------------------------|


Eb|--------------------|
Bb|-15-15--15-14-14----|
Gb|-14-14--14-14-14----|
Db|--------------------|
Ab|--------------------|
Db|--------------------|


Pre-Chorus

(Guitar 2)
Eb|--------------15~--|
Bb|--10~--------------|
Gb|-------------------|
Db|-------------------|
Ab|-------------------|
Db|-------------------|

Chorus x1 (really guitar 1 plays the chords and guitar two plays some high notes but I 
hear them enough to play them)

(Both Guitars)
Eb|------------------------------------------------|
Bb|------------------------------------------------|
Gb|------------------------------------------------|
Db|-0------5------2--------0------5-----9-----7-0--|
Ab|-0------5------2--------0------5-----9-----7-0--|
Db|-0(16x)-5(12x)-2(4x)----0(16x)-5(8x)-9(4x)-7-0--|


Pre-Verse 2 4x

(Guitar 2)
Eb|---------5-5-5-5----|
Bb|--------------------|
Gb|-4-4-4-4------------|
Db|--------------------|
Ab|--------------------|
Db|--------------------|

Verse 2 x1

(Guitar 2)
Eb|---------------------------------------------------------------|
Bb|--10-10--12--12--10-10--12--12----15-15--15--15--15-15--14--14-|
Gb|--11-11--11--11--11-11--11--11----14-14--14--14--14-14--14--14-|
Db|---------------------------------------------------------------|
Ab|---------------------------------------------------------------|
Db|---------------------------------------------------------------|

Eb|---------------------------------------------------------------|
Bb|--10-10--12--12--10-10--12--12----15-15--15--15--15-----14-----|
Gb|--11-11--11--11--11-11--11--11----14-14--14--14--14(x4)-14(x4)-|
Db|---------------------------------------------------------------|
Ab|---------------------------------------------------------------|
Db|---------------------------------------------------------------|

Eb|-------------------------------------------------------------|
Bb|--12-12--12-10-12-10--12-12--12-10-12-10----15-15--15-15-15--|
Gb|--11-11--11-11-11-11--11-11--11-11-11-11----14-14--14-14-14--|
Db|-------------------------------------------------------------|
Ab|-------------------------------------------------------------|
Db|-------------------------------------------------------------|


Eb|--------------------|
Bb|-15-15--15-14-14----|
Gb|-14-14--14-14-14----|
Db|--------------------|
Ab|--------------------|
Db|--------------------|


Then Play Pre-Chorus 1x

Then Chorus 1x

Then Pre-Verse 2 4x

Bridge

(Guitar 1)(Clean Guitar) 1x
Eb|----------------------------------------------------------------|
Bb|----------------------------------------------------------------|
Gb|--4-4-4-4-4-4-4-4-----------------------------------------------|
Db|--4-4-4-4-4-4-4-4--0-0-0-0-0-0-0-0--2-2-2-2--0-0-0-0--9-9-9-9---|
Ab|--2-2-2-2-2-2-2-2--0-0-0-0-0-0-0-0--2-2-2-2--0-0-0-0--9-9-9-9---|
Db|-------------------0-0-0-0-0-0-0-0--2-2-2-2--0-0-0-0--9-9-9-9---|
p.m. . . . . . . . .  . . . . . . . .  . . . .  . . . .  . . . .

Eb|----------------------------------------------------------------|
Bb|----------------------------------------------------------------|
Gb|-------------4-4-4-4-4-4-4-4------------------------------------|
Db|--7-7-7-7----4-4-4-4-4-4-4-4--0-0-0-0-0-0-0-0--2-2-2-2-2-2-2-2--|
Ab|--7-7-7-7----2-2-2-2-2-2-2-2--0-0-0-0-0-0-0-0--2-2-2-2-2-2-2-2--|
Db|--7-7-7-7---------------------0-0-0-0-0-0-0-0--2-2-2-2-2-2-2-2--|
p.m. . . . .    . . . . . . . .  . . . . . . . .  . . . . . . . .


(Guitar 2) x1
Eb|-----------17--14------------------------------17--14-------------|
Bb|--14h15p14---------14h15p14-15--/10---14h15p14--------14h15-14h15-|
Gb|------------------------------------------------------------------|
Db|------------------------------------------------------------------|
Ab|------------------------------------------------------------------|
Db|------------------------------------------------------------------|

Eb|-----------17--14--------17/19-----------17--14----|
Bb|--14h15p14---------15p14--------14h15p14-----------|
Gb|---------------------------------------------------|
Db|---------------------------------------------------|
Ab|---------------------------------------------------|
Db|---------------------------------------------------|

Pre-Chorus 2


(Guitar 2) (with a weird effects pedal)
Eb|-5-5-5-5-5-5-5-5----|
Bb|--------------------|
Gb|--------------------|
Db|--------------------|
Ab|--------------------|
Db|--------------------|

Eb|---------5-5-5-5----|
Bb|--------------------|
Gb|-4-4-4-4------------|
Db|--------------------|
Ab|--------------------|
Db|--------------------|x3


Then Play Chorus 1x

Then Play Pre-Verse 2 4x

Ending 4x

(Both Guitars)
Eb|-----------------------------------------------------------------|
Bb|-----------------------------------------------------------------|
Gb|-----------------------------------------------------------------|
Db|-----------------------------------------------------------------|
Ab|----4-5---4-5-4-5----4-5-4-7-5-4-5----4-5---4-5-4-5---4-5-4----5-|
Db|--4-----4----------4----------------4-----4----------4-----5-4---|
Добавлено: 26.05.2012
Другие материалы по этой песне:
  • Аккорды и текст

Страница создана 26.05.2012
http://primanota.ru/this-beautiful-republic/casting-off-chords.htm
Привет, Гость.
Предлагаем пройти революционный курс по гитаре.
Подарок от PrimaNota.Ru, забирай!