PrimaNota.ru - самый крупный в мире бесплатный архив песенных текстов, аккордов, табулатур и нот


Thirteen - Cherry Petite Raspberry - таба, видео

Регистрация Запомнить меня
Войти через:  Facebook Google Twitter Vk Yandex Mail.ru

Thirteen - Cherry Petite Raspberry - таба, видео

Печатать
Просмотров: 331
Thirteen  : Cherry Petite Rasberry
Tabbed by : Hariz Abdul Hadi (twitter.com/CubaTryTest)
Tuning    : Dropped D (DADGBe)
MySpace   : http://www.myspace.com/thirteenjkt

!-----------------------------------------------------!
| Awesome song by a great Hardcore band, THIRTEEN!    |
| This tab is 90% accurate, based on what I listened. |
| This is for their album version, the one with       |
| 'One more time baby' in the lyrics.                 |
|                                                     |
| Quite an easy song to perform, so enjoy!            |
|                                                     |
| Legend:                                             |
| PM - Palm mute.                                     |
| ~  - Vibrato/bend.                                  |
| *  - Let ring.                                      |
| /  - Slide.                                         |
| x* - Repeat * times.                                |
!-----------------------------------------------------!

[INTRO]

*Transylvania piano theme*

e|---------------|
B|---------------|
G|---------------|
D|-------------0-|
A|-00000000----0-|
D|-00000000-x7-0-|
PM ........

*Giggles*

[VERSE 1]

Guitar 1
e|-------------------------------------|
B|-------------------------------------|
G|-------------------------------------|
D|-0-3-2~-00-2-1~----000000000-0000----|
A|-0-3-2~-00-2-1~-x4-000000000-0000-x4-|
D|-0-3-2~-00-2-1~----000000000-0000----|
PM                   ......... ....

Guitar 2
e|--------------------------------------|
B|--------------------------------------|
G|--------------------------------------|
D|-0-3-2~-00-2-1~-x4-7-10-9~-77-9-8~-x4-|
A|--------------------------------------|
D|--------------------------------------|

'I will kill you..."

Guitar 1
e|--------------------------|
B|--------------------------|
G|--------------------------|
D|-0-0----0-0----0-0----0-0-|
A|-0-0----0-0----0-0----0-0-|
D|-0-0----0-0----0-0----0-0-|
PM . .    . .    . .    . .

*Circus piano theme*

Guitar 1
e|---|-------------------------|
B|---|-------------------------|
G|---|-------------------------|
D|-0-|-6-5-0-3-5-00-000-000----|
A|-0-|-6-5-0-3-5-00-000-000-x4-|
D|-0-|-6-5-0-3-5-00-000-000----|
PM .             .. ... ...

(Palm mute the whole thing)
e|---|------------------------|
B|---|------------------------|
G|---|------------------------|
D|-0-|-6-5-0-3-5-00-000000----|
A|-0-|-6-5-0-3-5-00-000000-x4-|
D|-0-|-6-5-0-3-5-00-000000----|
PM .   . . . . . .. ......

*One more time baby..."

(Slower tempo)
e|---|---------------------|
B|---|---------------------|
G|---|---------------------|
D|-0-|-6-5-0-3-5-00-000----|
A|-0-|-6-5-0-3-5-00-000-x4-|
D|-0-|-6-5-0-3-5-00-000----|
PM .   . . . . . .. ...

[BREAK DOWN]

Guitar 1
e|-----------------|
B|-----------------|
G|-----------------|
D|-0-0-00-00----0*-|
A|-0-0-00-00-x6-0*-|
D|-0-0-00-00----0*-|
PM .   .. ..

Guitar 2 (This is after Guitar 1 plays the 2nd time)
e|-(7)----------|
B|----(7)-------|
G|-------(7)----|
D|----------(7)-|
A|--------------|
D|--------------|
   (Harmonics)

[INTERLUDE]

*Only bass scales and keyboard here*

[AFTER INTERLUDE]

Guitar 1
e|-------------|
B|-------------|
G|-------------|
D|-0*----00-0*-|
A|-0*----00-0*-|
D|-0*----00-0*-|
PM       ..

[OUTRO]

e|-------------------------|
B|-------------------------|
G|-------------------------|
D|-0-0-00-00--1-1-11-11----|
A|-0-0-00-00--1-1-11-11-x4-|
D|-0-0-00-00--1-1-11-11----|
PM . . .. ..  . . .. ..

e|-----------|
B|-----------|
G|-----------|
D|-1-1-11-11-|
A|-1-1-11-11-|
D|-1-1-11-11-|
PM . . .. ..

-END-

http://www.myspace.com/thirteenjkt
Добавлено: 21.05.2012
Вам также может быть интересно:
Другие материалы по этой песне:
  • Аккорды и текст

Страница создана 21.05.2012
http://primanota.ru/thirteen/cherry-petite-raspberry-chords.htm
Привет, Гость.
Предлагаем пройти революционный курс по гитаре.
Подарок от PrimaNota.Ru, забирай!