PrimaNota.ru - самый крупный в мире бесплатный архив песенных текстов, аккордов, табулатур и нот


Third Eye Blind - Ten Days Late - текст песни, таба, видео

Регистрация Запомнить меня
Войти через:  Facebook Google Twitter Vk Yandex Mail.ru

Third Eye Blind - Ten Days Late - текст песни, таба, видео

Печатать
Просмотров: 99
SONG:            TEN DAYS LATE
ARTIST:          THIRD EYE BLIND
ALBUM:           BLUE
PUBLISHER:       ELEKTRA ENTERTAINMENT

TRANSCRIBED BY:  STEVE RAW
                  RAWTHAR@HOTMAIL.COM

=========================================

This one's for you, Lee-Dogg

This song's fun and driving, and the bass does a lot of the work.
Use a really bright sounding guitar with a bit of crunch.


Key:

h   - hammer-on
p   - pull-off
/   - slide
~   - tremolo
b   - bend
nh  - natural harmonic
T   - fret using thumb
] o
] o - repeat



VERSE:

The bass notes are played on the bass on the album, but you can
play it on your guitar, of course, like this

   F3

e--------------------------------------------------------------------
b--------------------------------------------------------------------
g--------------------------------------------------------------------
d--------------------------------------------------------------------
a----------0--------------0-----0----------0--------------0-------0--
E--1---1-------1--1---1------1---------1-------1---1---1------1------

Then the guitar comes in:

   C     Csus4                C

e--------1--1--1--1--1--1--1--------0--0--0--0--0--0--0--]
b--1--1--1--1--1--1--1--1--1--1--1--1--1--1--1--1--1--1--]
g--0--0--0--0--0--0--0--0--0--0--0--0--0--0--0--0--0--0--] o
d--2--2--2--2--2--2--2--2--2--2--2--2--2--2--2--2--2--2--] o
a--3--3-----------------------3--3-----------------------]
E--------------------------------------------------------]

CHORUS

(Rhythm)
    F         C        A#         F           A#      F

e--1----------0--------1----------1-----------1-------1---
b--1----------1--------3----------1-----------3-------1---
g--2----------0--------3----------2-----------3-------2---
d--3----------2--------3----------3-----------3-------3---
a--3----------3--------1----------3-----------1-------3---
E--1------------------------------1-------------------1---

(LEAD)                 A#         F           A#      F
e--------------------------------------------------------------
b--------------------------------------------------------------
g--------------------------5/--7--5--3-2---------5h7--5--3-2---
d----------------------3----------------------3----------------
a--------------------------------------------------------------
E--------------------------------------------------------------

(Rhythm)
    Dm        C        A#      F           A#

e--1----------0--------1-------1-----------1----
b--3----------1--------3-------1-----------3----
g--2----------0--------3-------2-----------3----
d--0----------2--------3-------3-----------3----
a-------------3--------1-------3-----------1----
E------------------------------1----------------

(LEAD)                 A#      F           A#          F
e----------------------------------------------------------]
b----------------------------------------------------------]
g-----------------------------5h7--5--3-2---------5/7--5---]
d----------------------3-------------------3---------------]
a----------------------------------------------------------]
E----------------------------------------------------------]

(Rhythm)   F           F           F           F F
e--x-x-x-x-1---x-x-x-x-1---x-x-x-x-1---x-x-x-x-1-1--]
b--x-x-x-x-1---x-x-x-x-1---x-x-x-x-1---x-x-x-x-1-1--]
g--x-x-x-x-2---x-x-x-x-2---x-x-x-x-2---x-x-x-x-2-2--]
d--x-x-x-x-3---x-x-x-x-3---x-x-x-x-3---x-x-x-x-3-3--]
a--x-x-x-x-3---x-x-x-x-3---x-x-x-x-3---x-x-x-x-3-3--]
E--x-x-x-x-1---x-x-x-x-1---x-x-x-x-1---x-x-x-x-1-1--]

Repeat Verse, Chorus

Fill during second verse
e-------13------------------10-------]
b--------------10-----13-------------]
g------------------------------------]
d------------------------------------]
a------------------------------------]
E------------------------------------]
       "Don't  Em     ven   Know"

Choir part:  All bass

g-----------------------------------------------------------------]
d------------------------------------------------3-3-3-3-3--------] o
a---1--1--1--1--1-0-------------0---1--1--1--1-3-----------3-0----] o
E-------------------1-1-1-1-1-1-----------------------------------]

Solo thing at the end of choir bridge  (with a wah)

e-------------------------------------------------------------------]
b-------------------------------------------------------------------]
g-------------------------------------------------------------------]
d------6h8---6h8---8--------------------6---8p6------6---8p6--------]
a--8-------------------8---6h8----6h8------------8-----------8-6-8--]
E-------------------------------------------------------------------]

Verse, Chorus, Goodbye

Check out my "Wounded" tab while you're at it...
     
Добавлено: 24.10.2013
Другие материалы по этой песне:

Страница создана 15.04.2012
http://primanota.ru/third-eye-blind/ten-days-late-chords.htm
Привет, Гость.
Предлагаем пройти революционный курс по гитаре.
Подарок от PrimaNota.Ru, забирай!