PrimaNota.ru - самый крупный в мире бесплатный архив песенных текстов, аккордов, табулатур и нот


Third Day - Consuming Fire Live - таба, видео

Регистрация Запомнить меня
Войти через:  Facebook Google Twitter Vk Yandex Mail.ru

Third Day - Consuming Fire Live - таба, видео

Печатать
Просмотров: 82
----------------------------------------------------------------------------
			     Consuming Fire - Third Day
----------------------------------------------------------------------------
Tabbed by: Tucker Y.
Email: guitaristtuck@aim.com

Tuning: standard

solo updated, cause no one's perfect :)

1,2,3,4,5,6...
 
intro                          
e|----12*-----------7*---5*|-----------------------------------------------|
B|-12*------------7*-------|-----------------------------------------------|
G|-------------------------|--/11--9--11/12--9--12\9---9---7--7/9----------|
D|-------------------------|--------------------------------------9--7-9/10|
A|-------------------------|-----------------------------------------------|
E|-------------------------|-----------------------------------------------|
 
e|----------------------------|
B|----------------------------|
G|-------------------------/9-|  play chords= E-C-G-D-E-C-A(x2) during intro
D|-7---10/11---7---10---7-----|
A|----------------------------|
E|----------------------------|

verse
E-G-A (x6)
A-G-D-B7

chorus        (2x)
e|---------------|
B|---------------|
G|---5---7---5---|
D|-2-5-5-7-2-5-7-| with acustic = E-C-G-D-E-C-A(x2)
A|-2-3-5-5-2-3-7-|
E|-0---3---0---5-|

then

e|----12*-----------7*---5*-------12*----|
B|-12*------------7*-----------------12*-|
G|---------------------------------------|
D|---------------------------------------|  while with acustic= E-G-A(x2)
A|---------------------------------------|
E|---------------------------------------|

verse
E-G-A (x4)
A-G-D-B7

chorus        (2x)
e|---------------|
B|---------------|
G|---5---7---5---|
D|-2-5-5-7-2-5-7-| with acustic= E-C-G-D-E-C-A(x2)
A|-2-3-5-5-2-3-7-|
E|-0---3---0---5-|

bridge
Bm-D-A-Em(x2)
Bm-D-A-E
E-C-G-D
E-C-A

solo- transitions into chorus

note- 17b18b17 means bend to 18th fret and back
e|-------------------------------------------------------------------------|
B|-12-----12-----12------------12h15-17---15-12h13h15p13p12--14h15p14~~~~~-|
G|-14b16--14b16--14b16b14p12h14---------------------------12---------------|
D|-------------------------------------------------------------------------|
A|-------------------------------------------------------------------------|
E|-------------------------------------------------------------------------|

e|----------------------------------------------------12-12-10--8--8--8-|
B|----------------------------------------12----12----------------------|
G|-----12p9---14p12p11h12p11h12----12p9---14b16-14-----9--9--9--9--9--9-|
D|-12p9-----12-----------------12p9-------------------------------------|
A|----------------------------------------------------------------------|
E|----------------------------------------------------------------------|

e|--8/9-------15p12------12h14-12~~~~~----|
B|-----------------15p12------------------|
G|--9-------------------------------------|
D|----------------------------------------|
A|----------------------------------------|
E|----------------------------------------|

| /  slide up
| \  slide down
| h  hammer-on
| p  pull-off
| ~  vibrato
| *  harmonic
| x  Mute note
============================================================================
Добавлено: 02.11.2013
Другие материалы по этой песне:
  • Аккорды и текст

Страница создана 02.11.2013
http://primanota.ru/third-day/consuming-fire-live-chords.htm
Привет, Гость.
Предлагаем пройти революционный курс по гитаре.
Подарок от PrimaNota.Ru, забирай!