PrimaNota.ru - самый крупный в мире бесплатный архив песенных текстов, аккордов, табулатур и нот


Thingy - Ob1 - аккорды и текст, видео

Регистрация Запомнить меня
Войти через:  Facebook Google Twitter Vk Yandex Mail.ru

Thingy - Ob1 - аккорды и текст, видео

Печатать
Просмотров: 80
Ob1
Thingy
artist: thingy
song:   O.B.1
album: "to the innocent" (AK003)
        written by rob crow
        played on acoustic guitar

Transcribed by Joey Moore (sucka@fatcake.com)


  help me  o   b   onnnnneeeeee

E|-----------------6-----------|
B|-----------------6-----------|
G|-7---7---7---7---7-----------|     strumming these as chords
D|-7---4---7---4---8-----------|
A|-5---5---5---5---6-----------|
E|-----------------6-----------|


  help me  o   b   wonnnnnnnnnnn

E|------------------------------|
B|-----------------8------------|
G|-7---7---7---7---7------------|
D|-7---4---7---4---5------------|
A|-5---5---5---5---6------------|
E|------------------------------|




   me and the rebel alliance

D|-5     /    2     / 7------|    slide between these bar chords,
A|-5    /     0    /  7------|    or just play the bottom E if you like
E|-3   /      0   /   5------|
     
Добавлено: 13.06.2013
Вам также может быть интересно:
Другие материалы по этой песне:
  • Аккорды и текст

Страница создана 13.06.2013
http://primanota.ru/thingy/ob1-chords.htm
Привет, Гость.
Предлагаем пройти революционный курс по гитаре.
Подарок от PrimaNota.Ru, забирай!