PrimaNota.ru - самый крупный в мире бесплатный архив песенных текстов, аккордов, табулатур и нот


Things Of Stone And Wood - Lullaby - таба, видео

Регистрация Запомнить меня
Войти через:  Facebook Google Twitter Vk Yandex Mail.ru

Things Of Stone And Wood - Lullaby - таба, видео

Печатать
Просмотров: 54
LULLABY
~~~~~~~
Things of Stone and Wood


INTRO & VERSE

e--------------------------------------------0----------------0-------|
B----1-----1-----1----1-----1-----1----1-------1---1----1-------1---1-|
G------0-----0----------0-----0----------2-------2--------2-------2---|
D--------2-----2----------2-----2----------2----------------2---------|
A--3----------------2----------------0--------------------------------|
E-----------------------------------------------------0---------------|


e----------1----------------1----------------3----------------1-------|
B----1-------1---1----1-------1---1----0-------0---0----0-------0---0-|
G------2-------2--------2-------2--------0-------0--------0-------0---|
D--3-----3----------0-----0----------------0----------------0---------|
A---------------------------------------------------------------------|
E------------------------------------3----------------3---------------|


CHORUS:
							rit.
e--------------------------------------------------------1------------|
B----0-----0-----0----1-----1-----1----1-----1-----1-----1------------|
G------0-----0----------0-----0----------2-----2---------2------------|
D--------2-----2----------2-----2----------2-----2-------3------------|
A--2----------------3----------------0--------------------------------|
E---------------------------------------------------------------------|


e--------------------------------------------3----------1-----1-------|
B----1-----1-----1----1-----1-----1----0-------0---0------0-----0---0-|
G------0-----0----------2-----2----------0-------0----------0-----0---|
D--------2-----2----------2-----2----------0----------0---------------|
A--3----------------0-------------------------------------------------|
E------------------------------------3--------------------------------|


And it goes something like that. I think the chorus is bit dodgy, but
it'll do for now.

(Thanks to Corey Walker at Melbourne UNI for a fair bit of this)


SILENT NO LONGER
~~~~~~ ~~ ~~~~~~

Things of Stone and Wood


I haven't done much on this either, but here's what I've got - add to it if
you can.

Em		   Am		      G			B/F#
	You've had visions you've had powerful dreams

Em		        Am		   G	    	Dsus/F#
	You've seen the maps that lead to utopia

Em			Am		   G		G
	(something or other ........)

  and thats about as far as I get.

M.Osborne
MBOSB1@mfs01.cc.monash.edu.au

Em
Добавлено: 16.06.2013
Вам также может быть интересно:
Другие материалы по этой песне:
  • Аккорды и текст

Страница создана 16.06.2013
http://primanota.ru/things-of-stone-and-wood/lullaby-chords.htm
Привет, Гость.
Предлагаем пройти революционный курс по гитаре.
Подарок от PrimaNota.Ru, забирай!