PrimaNota.ru - самый крупный в мире бесплатный архив песенных текстов, аккордов, табулатур и нот


Things Fall Apart - Criminal Divinity - аккорды и текст, таба, видео

Регистрация Запомнить меня
Войти через:  Facebook Google Twitter Vk Yandex Mail.ru

Things Fall Apart - Criminal Divinity - аккорды и текст, таба, видео

Печатать
Просмотров: 98
Criminal Divinity
Things Fall Apart
		   "Criminal Divinity" by THINGS FALL APART
Transcribed by: Aaron Kinney & Janis Klavins

Intro:
(done with LOTS of distortion and a wah-wah pedal)

E---------------------------------------------------------
B---------------------------------------------------------
G---------------------------------------------------------
D--11--10--11-----------------14--16--14---------14-------
A--------------12-12--11--12--------------14-14------14---
E---------------------------------------------------------


Here are the riffs for Guitar One:

G/A
|| C#   A   E   B ||
This is done with 4 beats on each note and a few holds.  During the
intro both Guitars do this.

G/B
C# C C# A Aflat A E F# B E B
Strum this quickly twice after the chorus then palm-mute it fast as
hell four times during the verse.


G/A
|| C#   E   B   A ||
This is played by the second guitar the same way that G/A is done.
It's only for the chorus.


And here's the...  er...  solo.

E------------------------------------17--/--19---
B-------------------------14--/--17--------------
G--6--/--9--/--14--/--16-------------14--/--16---
D-------------------------11--/--14--------------
A--4--/--7--/--12--/--14-------------------------
E------------------------------------------------

E------------------------------------17--/--19--/--( )--
B-------------------------14--/--17---------------------
G--4--/--9--/--14--\--13-------------14--/--16--/--( )--
D-------------------------11--/--14---------------------
A--6--/--7--/--12--\--11--------------------------------
E-------------------------------------------------------



The structure GOES:

Intro
G/A + G/A (both Guitars, play twice)
G/B
G/A + G/A = CHORUS
G/B
CHORUS
G/A + Solo
G/B
CHORUS x2

..let fade for 8 beats...
CHORUS... do this four times...
Hold for 16 beats...
***TRIPLE SPEED***

G/B
CHORUS x2


* E's on G are played:        * B's on G are played:
G| 9                           D| 9
D| 9                           A| 9
A| 7                           E| 7
E| 7

* E's on G are played:        * B's on G are played:
G| 0                           G| 4
D| 2                           D| 4
A| 2                           A| 2
E| 0                           E| 2

* F# on G is played:
G| 11
D| 11
A| 9
E| 9     
Добавлено: 06.12.2013
Вам также может быть интересно:
Другие материалы по этой песне:
  • Аккорды и текст

Страница создана 24.04.2012
http://primanota.ru/things-fall-apart/criminal-divinity-chords.htm
Привет, Гость.
Предлагаем пройти революционный курс по гитаре.
Подарок от PrimaNota.Ru, забирай!