PrimaNota.ru - самый крупный в мире бесплатный архив песенных текстов, аккордов, табулатур и нот


Thine Eyes Bleed - Cold Victim - таба, видео

Регистрация Запомнить меня
Войти через:  Facebook Google Twitter Vk Yandex Mail.ru

Thine Eyes Bleed - Cold Victim - таба, видео

Печатать
Просмотров: 77
There's a good portion of this tab missing, but this is a decent foundation to figure 
out the rest of the song's fills/riff variations.

INTRO[FEEDBACK]

MAIN RIFF
|-------------------------------------------------|
|-------------------------------------------------|
|o------------------------------------------------|
|o-----------------------------------555577778888-|
|--8--------------5--------------8888-------------|
|----000000000000---000000000000------------------|

|-------------------------------------------------|
|-------------------------------------------------|
|------------------------------------------------o|
|-----------------------------------888877775555-o|
|-8--------------5--------------7777--------------|
|---000000000000---000000000000-------------------|

VERSE RIFF
|-------------------------------------------------|
|-------------------------------------------------|
|o------------------------------------------------|
|o------------------------------------------------|
|-7---------------4-------------------8---7---4/7-|
|---5-555-555-555---5-555-555-555-666---6---5-----|

|---------------------------------------------------|
|---------------------------------------------------|
|---------------------------------------------------|
|------------------------------------555577778888---|
|--8--------------5--------------8888---------------|
|----000000000000---000000000000--------------------|

|---------------------------------------------------|
|---------------------------------------------------|
|--------------------------------------------------o|
|------------------------------------888877775555--o|
|--8--------------5--------------7777---------------|
|----000000000000---000000000000--------------------|

FILL 1
|---------------------------------------------------|
|---------------------------------------------------|
|---------------------------------------------------|
|---------------------------------------------------|
|-7---------------4---------------8-7h8p7-5/4~---5--|
|---5-555-555-555---5-555-555-555--------------0----|

BRIDGE
|------------------------------------------------------------------|
|------------------------------------------------------------------|
|o----------------------------------------------------------------o|
|o-7------------7h8p7--------7------------------------------------o|
|----------10-----------10-------7---8-----------7---5h7p5-----4~--|
|----8-888----8-------8----8---8---8---7-777-777---7-------7-7-----|

CHORUS
|-------------------------------------------------------|
|-------------------------------------------------------|
|o-----------------------------------------------------o|
|o-0~-----------------4----------------------4---------o|
|--0~---5-3-5~--3-5-6---6-5-3--0-5-3-5~--5-6---6-5-3-5--|
|--0~-0------------------------0------------------------|
Добавлено: 24.07.2013
Другие материалы по этой песне:
  • Аккорды и текст

Страница создана 24.07.2013
http://primanota.ru/thine-eyes-bleed/cold-victim-chords.htm
Привет, Гость.
Предлагаем пройти революционный курс по гитаре.
Подарок от PrimaNota.Ru, забирай!