PrimaNota.ru - самый крупный в мире бесплатный архив песенных текстов, аккордов, табулатур и нот


Thin Lizzy - Someday Shes Going To Hit Back - аккорды и текст, таба, видео

Регистрация Запомнить меня
Войти через:  Facebook Google Twitter Vk Yandex Mail.ru

Thin Lizzy - Someday Shes Going To Hit Back - аккорды и текст, таба, видео

Печатать
Просмотров: 144
Уроки эстрадного вокала в Санкт-Петербурге
Someday Shes Going To Hit Back
Thin Lizzy
Intro:
C5
G5
G5 G5 Bb5
G5 G5 Bb5
 
Verse:
C5
while the C5 chord is played:
-------|
B---------|
G---------|
D---------|
A---------|
E-8h10h11-

Chorus:
------------------------|
B--------------------------|
G-10-8-12-10-14-8-10-8-6-4-|
D-10-8-12-10-14-8-10-8-6-4-|
A-8--6-10-8--12-6-8--6-4-2-|
E--------------------------|

Bridge:
3-11-15-13----13-11-13-|
B-------------15----------|
G-------------------------|
D-------------------------|
A-------------------------|
E-------------------------|

Outro:
-------------|
B---------------|
G-10-8-12-10-13-|
D-10-8-12-10-13-|
A-8--6-10-8--11-|
E---------------|
Добавлено: 22.08.2013
Другие материалы по этой песне:
  • Аккорды и текст

Страница создана 28.03.2012
http://primanota.ru/thin-lizzy/someday-shes-going-to-hit-back-chords.htm
Привет, Гость.
Предлагаем пройти революционный курс по гитаре.
Подарок от PrimaNota.Ru, забирай!