PrimaNota.ru - самый крупный в мире бесплатный архив песенных текстов, аккордов, табулатур и нот


Thin Lizzy - Its Only Money - текст песни, таба, бас-таба, видео

Регистрация Запомнить меня
Войти через:  Facebook Google Twitter Vk Yandex Mail.ru

Thin Lizzy - Its Only Money - текст песни, таба, бас-таба, видео

Печатать
Просмотров: 135
Авторы музыки: Phil Lynott
Авторы текста: Phil Lynott
Artist: Thin Lizzy
Song: It's Only Money
Tabed For Tune: E
Tabed By Janne Tschokkinen
E-Mail: janne.tschokkinen@kolumbus.fi
Site: http://www.kolumbus.fi/janne.tschokkinen

!!!These tabs were created without any kinds of money making 
purposes and are to be used only for educational purposes!!!

!!!C not re-publish this tab without permission!!!
Best viewed with 1024X768, but works also with 800X600
--------------------------------------------------------------

---->
Song Structure:
Intro: Fig.1
Verse:
Bridge: Fig.2
Verse:
Bridge: Fig.1 (three last bars only)
Solo: Fig.3
Verse:
Bridge: Fig.2
Verse:
Bridge: Fig.1 (three last bars only), Fig.4
Solo: Fig.3
Verse:
Outro: Fig.1
--->

Fig.1                             X4                 1-3       X4 4
E|---------------|------------------|---------------|------------|---------------|
H|---------------|------------------|---------------|------------|---------------|
G|.--------------|-----------------.|.--------------|-----------.|-------7--7--9-|
D|.7-5-----------|-7-5---5--7------.|.7-5-----------|-7-5---5--7.|-7-5---5--5--7-|
A|-----7---------|-----7------------|----7--5-3-----|-----7------|-----7---------|
E|---------------|------------------|-----------5---|------------|---------------|

Fig.2
E|---------------|------------------|
H|---------------|------------------|
G|---------------|------------------|
D|-7-5--------5--|-7-5---5--7-------|
A|-----7---X--3--|-----7------------|
E|---------------|------------------|

Fig.3             1-3             X4  4
E|---------------|------------------|---------------|
H|---------------|------------------|---------------|
G|.--------------|-----------------.|---------------|
D|.9-7--------7--|-9-7---7--9------.|-9-7---5--5--7-|
A|-----9---X--5--|-----9------------|-----9---------|
E|---------------|------------------|---------------|

Fig.4                             X4
E|---------------|------------------|--------------------|-------------|
H|---------------|------------------|--------------------|-------------|
G|.--------------|-----------------.|.-------------------|------------.|
D|.--------------|-----------------.|.---5---------------|----5-------.|
A|-5-3-----5-3---|-5-3-----3--3--5--|-7----5-7---5--0----|-7----5-7----|
E|-----5-------5-|-----5------------|------------------7-|-------------|
     
Добавлено: 01.11.2013
Другие материалы по этой песне:
  • Аккорды и текст

Страница создана 21.06.2012
http://primanota.ru/thin-lizzy/its-only-money-chords.htm
Привет, Гость.
Предлагаем пройти революционный курс по гитаре.
Подарок от PrimaNota.Ru, забирай!