PrimaNota.ru - самый крупный в мире бесплатный архив песенных текстов, аккордов, табулатур и нот


Thin Lizzy - Bad Reputation - текст песни, таба, бас-таба, видео

Регистрация Запомнить меня
Войти через:  Facebook Google Twitter Vk Yandex Mail.ru

Thin Lizzy - Bad Reputation - текст песни, таба, бас-таба, видео

Печатать
Просмотров: 266
Авторы музыки: Brian Downey, Phil Lynott, Scott Gorham

Bad Reputation solo

Tune your guitars to Eb fun solo 2 guitars

Yes song is in Eb but i say standard listed below no confusion im just too lazy to
type it in Eb

Harmony
Gtr 1


e--------------------------------------------------|
b-------------10B(12)-R----------------------------|
g-----7-7---------------9B(11)-R-9p7-------7-7-----|
d-7-9-----9-7------------------------9-7-9-----9-7-|
a--------------------------------------------------|
e--------------------------------------------------|


e--------------------------|
b-------------------12-----|
g-----7-7-----/9-12----12--|
d-7-9-----9-7--------------|
a--------------------------|
e--------------------------|


e--------------------------------------------------|
b-------------10B(12)-R----------------------------|
g-----7-7---------------9B(11)-R-9p7-------7-7-----|
d-7-9-----9-7------------------------9-7-9-----9-7-|
a--------------------------------------------------|
e--------------------------------------------------|


e--------------------------------------------|
b---------------10p8---10p8---10p8---10p8----|
g-----7-7-----------9------9------9------9---|
d-7-9-----9-7--------------------------------|
a--------------------------------------------|
e--------------------------------------------|

e--------------------------------------------------|
b-------------10B(12)-R----------------------------|
g-----7-7---------------9B(11)-R-9p7-------7-7-----|
d-7-9-----9-7------------------------9-7-9-----9-7-|
a--------------------------------------------------|
e--------------------------------------------------|

e------------------19-20-22-|
b--------------/20----------|
g-----7-7-------------------|
d-7-9-----9-7---------------|
a---------------------------|
e---------------------------|

e---------------------------------------------------|
b-------------10B(12)-R-----------------------------|
g-----7-7---------------9B(11)-R-9p7-------7-7------|
d-7-9-----9-7------------------------9-7-9-----9-7--|
a---------------------------------------------------|
e---------------------------------------------------|

e------------------------------------------|
b--------------10p8---10p8---10p8---10p8---|
g-----7-7-----------9------9------9------9-|
d-7-9-----9-7------------------------------|
a------------------------------------------|
e------------------------------------------|

Gtr 2

e-------------------------------------------------|
b-------------------13B(15)R----------------------|
g-------11-11----------------12B(14)R-11-12p11----|
d-12-14-------14-12----------------------------14-|
a-------------------------------------------------|
e-------------------------------------------------|

e-------------------------------|
b----------------------12-15-12-|
g-------11-11-------12----------|
d-12-14-------14-12-------------|
a-------------------------------|
e-------------------------------|

e-------------------------------------------------|
b-------------------13B(15)R----------------------|
g-------11-11----------------12B(14)R-11-12p11----|
d-12-14-------14-12----------------------------14-|
a-------------------------------------------------|
e-------------------------------------------------|

e-------------------------------------------------------|
b-------------------15p12----15p12----15p12----15p12----|
g-------11-11-------------12-------12-------12-------12-|
d-12-14-------14-12-------------------------------------|
a-------------------------------------------------------|
e-------------------------------------------------------|

e-------------------------------------------------|
b-------------------13B(15)R----------------------|
g-------11-11----------------12B(14)R-11-12p11----|
d-12-14-------14-12----------------------------14-|
a-------------------------------------------------|
e-------------------------------------------------|

e--------------------------17-19-|
b-------------------/17-20-------|
g-------11-11--------------------|
d-12-14-------14-12--------------|
a--------------------------------|
e--------------------------------|

e-------------------------------------------------|
b-------------------13B(15)R----------------------|
g-------11-11----------------12B(14)R-11-12p11----|
d-12-14-------14-12----------------------------14-|
a-------------------------------------------------|
e-------------------------------------------------|

e-------------------------------------------------------|
b-------------------15p12----15p12----15p12----15p12----|
g-------11-11-------------12-------12-------12-------12-|
d-12-14-------14-12-------------------------------------|
a-------------------------------------------------------|
e-------------------------------------------------------|


SOLO TIME yeah Scott Gorham (i think)

e-----------------------------------------------------------------------------|
b----------8p7p5--------15GB(18)-12-15B(17)-------12h15p12-15B(17)-12---------|
g-9GB(11)~-------7/9-9~---------------------12h14---------------------14B(16)-|
d-----------------------------------------------------------------------------|
a-----------------------------------------------------------------------------|
e-----------------------------------------------------------------------------|

e------------------------------------------------|
b------------------------------------------------|
g----------------------------------------7-9p7/9-|
d-/-----------/-0h2(trill)---5-7-5-5-7/9---------|
a-/pick slide-/------------7---------------------|
e-/-----------/----------------------------------|

e------------------------------------------------------|
b----7-8p7---------------------------------------------|
g---x------9-7---7/9-9-7-------------------------------|
d--x-----------9---------9-7-9p7----7--------5-5-7p5---|
a-x------------------------------10---10p7-7---------7-|
e------------------------------------------------------|

e-----------12-------|
b--------12----15p12-|
g-14B(16)------------|
d--------------------|  do this little section a few times
a--------------------|
e--------------------|

e--------12-15-12------------------------------------|
b-15B(17)---------15-12-x-15-12----------------------|
g-------------------------------x-x-14-12----x-12-11-|
d-------------------------------x-x-------14-x-------|
a----------------------------------------------------|
e----------------------------------------------------|

e-----------------------------------------------|
b-x-14-xx-12-xxxx-14-x-12-xxx-14-xx-12-xx-14/12-|
g-x-14-xx-12-xxxx-14-x-12-xxx-14-xx-12-xx-14/12-|
d-----------------------------------------------|  feel the dead notes for this lick
a-----------------------------------------------|
e-----------------------------------------------|

e---------------------------------------------|
b---------------------------------------------|
g-------------------12----------12-14B(16)12~-|
d-14-12-14-12-12h14----14-12h14---------------|
a---------------------------------------------|
e---------------------------------------------|

e------------------------------------------|
b------------------------------------------|
g------------------------------------------|
d-------------------x-12-------12-14p12----|
a-12h14-14-------14-x----14p12----------14-|
e----------12-12---------------------------|

e----------------------------------------------------------|
b-----------15---------------------------------------------|
g-xx-14B(16)---12-xx-14p12----x-12-14-x-12-xx-14p12----12~-|
d-xx--------------xx-------14-x-------x----xx-------14-----|
a----------------------------------------------------------|
e----------------------------------------------------------|


e---------------15----------------------------------|
b-15B(17)15B(17)--15B(17)-12-12---------------------|
g-------------------------------14B(16R16)-12-------|
d---------------------------------------------14-12-|
a---------------------------------------------------|
e---------------------------------------------------|


e-----------------------------------------------------|
b-----------------------------------------------------|
g--------------------------xx----------12-14p12-12-12-|
d-----5---7p5---5-7-5-7/9--xx-12h13h14----------------|
a-5/7---7-----7---------------------------------------|
e-----------------------------------------------------|

e----------------------------------------------------------------|
b----------------------------------------------12----12h15p12h15-|
g----------------------------12----12h14p12h14----14-------------|
d----------12----12h14p12h14----14-------------------------------|
a-14p12h14----14-------------------------------------------------|
e----------------------------------------------------------------|

e-12----12-15B(17)-15-12------12-----------------------------------------|
b----15------------------15-x----15B(17)15B(17)15B(17)12-x-12------------|
g---------------------------x----------------------------x----14-14B(16)-|
d------------------------------------------------------------------------|
a------------------------------------------------------------------------|
e------------------------------------------------------------------------|

and from here it starts to fade you can do a lil improv like the end of the song
i think its just a little e minor pentatonic lick HAVE FUN


Ps I will admit i didn't ear this tab i got it from a guitar pro file but it needed to 
on the site so rock hard suckas
Добавлено: 06.05.2012
Другие материалы по этой песне:

Страница создана 06.03.2012
http://primanota.ru/thin-lizzy/bad-reputation-chords.htm
Привет, Гость.
Предлагаем пройти революционный курс по гитаре.
Подарок от PrimaNota.Ru, забирай!