PrimaNota.ru - самый крупный в мире бесплатный архив песенных текстов, аккордов, табулатур и нот


Thievery Corporation - Saudade - таба, видео

Регистрация Запомнить меня
Войти через:  Facebook Google Twitter Vk Yandex Mail.ru

Thievery Corporation - Saudade - таба, видео

Печатать
Просмотров: 97
-------------------------------------------------------------------------------
                             Thievery Corporation - Saudade
-------------------------------------------------------------------------------


Tuning: Standard

Intro   
                          Gm          A7         Dm
E|--------5--3---------------------------------------------------------------|
B|--3--6--------6--5--3-----------3-----------5-----------6------------------|
G|-----------------------------3-----------6-----------7---------------------|
D|--------------------------5-----------5-----------7------------------------|
A|-----------------------------------------------5---------------------------|
E|-----------------------3-----------5---------------------------------------|


Guitar 1, Rhythym Guitar
      Gm                    A7                     Dm                                           
E|-------3----3-----3----3-----1----1-----1----1-------1----1-----1----1------1----1-----1----1--  Repeat untill
B|-------3----3-----3----3-----2----2-----2----2-------3----3-----3----3------3----3-----3----3--  outro
G|-------3----3-----3----3-----0----0-----0----0-------2----2-----2----2------2----2-----2----2--
D|-------5----5-----5----5-----2----2-----2----2----0----------0-----------0----------0----------
A|--------------------------0----------0---------------------------------------------------------
E|----3----------3-------------------------------------------------------------------------------


Guitar 2, Lead Guitar
      Gm                    A7                     Dm                                           
E|5-----------------------------------------------------------------------------------------------
B|-------------------------------3----2---3/5-----------------------------------------------------
G|----2--------------------------------------------2----------------------------------------------
D|------------------------------------------------------------------------------------------------
A|------------------------------------------------------------------------------------------------
E|------------------------------------------------------------------------------------------------

      Gm                    A7                     Dm                                           
E|----1---------------0--1--3----------------1--0-------------------------------------------------
B|-------------------------------------------------3----------------------------------------------
G|2-----------------------------------------------------------------------------------------------
D|------------------------------------------------------------------------------------------------
A|------------------------------------------------------------------------------------------------ Repeat untill
E|------------------------------------------------------------------------------------------------ outro

Outro

E|--12-12-12-10-------------------------------------
B|--------------11-10-------8-----------------------
G|-----------------------------10--9----10-9--6--7--
D|--------------------------------------------------
A|--------------------------------------------------
E|--------------------------------------------------






When playing without a bass player, bass notes can be implemented while playing the Dm notes, 
for extra dimension:

   Gm                     A7                     Dm
E|-----3----3-----3----3-----1----1-----1----1-------1----1-----1----1------1----1-----1----1-- 
B|-----3----3-----3----3-----2----2-----2----2-------3----3-----3----3------3----3-----3----3--
G|-----3----3-----3----3-----0----0-----0----0-------2----2-----2----2------2----2-----2----2--
D|-----5----5-----5----5-----2----2-----2----2----3----------2-----------0----------0----------
A|------------------------0----------0---------------------------------------------------------
E|--3----------3-------------------------------------------------------------------------------



************************************

| /   slide up
| \   slide down
| h   hammer-on
| p   pull-off
| ~   vibrato
| +   harmonic
| x   Mute note
| b   Bend
| pb  Pre-bend
| br  Bend release
| pbr Pre-bend release
| brb Bend release bend

************************************
Добавлено: 11.06.2016
Другие материалы по этой песне:
  • Аккорды и текст

Страница создана 11.06.2016
http://primanota.ru/thievery-corporation/saudade-chords.htm
Привет, Гость.
Предлагаем пройти революционный курс по гитаре.
Подарок от PrimaNota.Ru, забирай!