PrimaNota.ru - самый крупный в мире бесплатный архив песенных текстов, аккордов, табулатур и нот


They Might Be Giants - The Lady And The Tiger - бас-таба, видео

Регистрация Запомнить меня
Войти через:  Facebook Google Twitter Vk Yandex Mail.ru

They Might Be Giants - The Lady And The Tiger - бас-таба, видео

Печатать
Просмотров: 122
Уроки эстрадного вокала в Санкт-Петербурге
---------------------------------------------------------------------------------
                 THE LADY AND THE TIGER - They Might Be Giants
---------------------------------------------------------------------------------
Tabbed by: FIuffyBunny


Tuning: Standard

It's mostly horns but here is how to play it on bass guitar.


This is the bass part throughout most of the song.

G|----|----|----|----|0---|----|----|----|----|----|----|1-1-|2---|----|----|----|
D|----|----|----|-02-|----|4---|----|----|0---|2---|4-4-|----|----|----|----|----|
A|0---|3---|--03|----|----|----|----|3---|----|----|----|----|----|----|2-2-|3---|
E|----|----|----|----|----|----|----|----|----|----|----|----|----|----|----|----|

The bass part for
"Felines and dames in flames will hardly serve your aims"

G|----|----|----|----|7---|----|----|----|5-5-|--7-|5-5-|----|----|----|----|----|
D|----|4---|---4|-57-|----|----|----|----|----|----|----|6-6-|7---|----|----|----|
A|3---|----|--3-|----|----|0---|----|----|----|----|----|----|----|----|2-2-|3---|
E|----|----|----|----|----|----|----|----|----|----|----|----|----|----|----|----|


==================================================================================
Добавлено: 13.08.2015
Другие материалы по этой песне:
  • Аккорды и текст

Страница создана 13.08.2015
http://primanota.ru/they-might-be-giants/lady-and-tiger-chords.htm
Привет, Гость.
Предлагаем пройти революционный курс по гитаре.
Подарок от PrimaNota.Ru, забирай!