PrimaNota.ru - самый крупный в мире бесплатный архив песенных текстов, аккордов, табулатур и нот


These Arms Are Snakes - Your Pearly Whites - таба, видео

Регистрация Запомнить меня
Войти через:  Facebook Google Twitter Vk Yandex Mail.ru

These Arms Are Snakes - Your Pearly Whites - таба, видео

Печатать
Просмотров: 103
-------------------------------------------------------------------------------
                             POUR PEARLY WHITES- These Arms ARE Snakes
-------------------------------------------------------------------------------
Tabbed by: Jack
Email:Park_punk@hotmail.com
Ok you figure how many times, you have to fucking love botch for giving us minus the 
and these arms are snakes.
Tuning:
Riff One
e|----10---10---10----10-------7-------------------------------------|
B|--8-----8----8----8------7h8---8-----------------------------------|
G|-------------------------------------------------------------------|
D|-------------------------------------------------------------------|
A|-------------------------------------------------------------------|
E|-------------------------------------------------------------------|
Riff two (play the first section a few time then play 2nd once)
e|-----------------------------------------|--------------------------------|
B|----------------7------------------------|-----------8~-------------------|
G|--------------7--------------------------|---------7----------------------|
D|------9p7---------------9p7-----------12-|----9p7-------------------------|
A|---------------------------------7s9-----|--------------------------------|
E|---7----------------7--------------------|7-------------------------------|
Riff 3 As before first section a few times and then the 2nd
e|--------------------|---------------------------------------------|
B|--------------------|---------------------------------------------|
G|--------------------|------9p7------------------------------------|
D|-----9p7------------|----------9-7-9------------------------------|
A|---------9--7-9-5---|-----------------5---------------------------|
E|--7-----------------|--10-----------------------------------------|
Riff 3
e|--------------------------------------------------------------------------|
B|--------------------------------------------------------------------------|
G|-111111--777---111111--777------------------------------------------------|
D|-----------------------------55555555--4444-------------------------------|
A|-9-9-9---555---9-9-9---555---55555555--4444---7-9-7-5---------------------|
E|-----------------------------33333333--2222-------------------------------|
Riff 4
e|--------------------------------------------------------------------------|
B|--------------------------------------------------------------------------|
G|--------------------------------------------------------------------------|
D|--------------------------------------------------------------------------|
A|--999-999-999--555--444---------------------------------------------------|
E|--777-777-777--333--222---------------------------------------------------|


Basic Structure
Riff 1
Riff 2
Riff 1
Riff 2
Riff 3
Riff 4
| /  slide up
|   slide down
| h  hammer-on
| p  pull-off
| ~  vibrato
| +  harmonic
| x  Mute note
==============================================================================
Добавлено: 22.07.2012
Другие материалы по этой песне:
  • Аккорды и текст

Страница создана 08.07.2012
http://primanota.ru/these-arms-are-snakes/your-pearly-whites-chords.htm
Привет, Гость.
Предлагаем пройти революционный курс по гитаре.
Подарок от PrimaNota.Ru, забирай!