PrimaNota.ru - самый крупный в мире бесплатный архив песенных текстов, аккордов, табулатур и нот


These Arms Are Snakes - The Blue Rose - текст песни, таба, видео

Регистрация Запомнить меня
Войти через:  Facebook Google Twitter Vk Yandex Mail.ru

These Arms Are Snakes - The Blue Rose - текст песни, таба, видео

Печатать
Просмотров: 118
TITLE  : The Blue Rose
ARTIST : These Arms Are Snakes
ALBUM  : This Is Meant To Hurt You EP (2003)
TUNING : Standard (EADGBe)

Tab #2 please rate.

A blue rose represents attaining the impossible.

*** The timing is off scale... refer to song. ***

"If this is an invitation, well then this is my RSVP." (0:00)

e ---------------------------------------------|
B ---------------------------------------------| x 2
G -2h4-4-4-2h4-4-4-2h4-4-----------------------|
D ---------------------------------------------|
A ---------------------------------------------|
E ---------------------------------------------|

e ---------------------------------------------|
B -3-----3-----3---5-----5-----5---------------| x 1
G --44444-44444-444-44444-44444-444------------|
D ---------------------------------------------|
A ---------------------------------------------|
E ---------------------------------------------|

"I'd say that at this point that 
scortched earth policies may be in my best interest." (0:32)

e ---------------------------------------------|
B ---------------------------------------------| x 3
G -4h2h0-4h2h0---0---0-------------------------|
D -------------4---2---------------------------|
A ---------------------------------------------|
E ---------------------------------------------|

e ---------------------------------------------|
B ---------------------------------------------| x 1
G -----0--------0------------------------------|
D -2h4------2h4--------------------------------|
A ---------------------------------------------|
E ---------------------------------------------|

"Come on and drive it in, I've got pills for the pain." (0:42)

e ---------------------------------------------|
B ---------------------------------------------| x 8
G -4---4-------2-0---0-------------------------|
D -4---4---4-2-----4---------------------------|
A -2---2---------------------------------------|
E ---------------------------------------------|

"You see it's me and my witchdoctor that need slits for our blades." (1:04)

e ---------------------------------------------|
B ---------------------------------------------| x 3
G ---------4-----------------------------------|
D -4-------4-----------------------------------|
A ---5-0---2-----------------------------------|
E ---------------------------------------------|

"A velvet lining around a throat is all the rage." (1:14)

e ---------------------------------------------|
B ---------------------------------------------| x 4
G ---------4-----------------------------------|
D -4-------4-333333----------------------------|
A ---5-0---2-----------------------------------|
E ---------------------------------------------|

e ---------------------------------------------|
B ---------------------------------------------| x 1
G ---------4-----------------------------------|
D -4-------4-----------------------------------|
A ---5-0---2-----------------------------------|
E ---------------------------------------------|

"Let's drive it into a perfect paragraph
so we can form a perfect sentence." (1:25)

e ---------------------------------------------|
B ---------------------------------------------| x 8
G ---------------------------------------------|
D -------------333333--------------------------|
A -0-2-0-2-0-2h0-------------------------------|
E ---------------------------------------------|

e ---------------------------------------------|
B -6666 x8 6/20--------------------------------| x 1
G ---------------------------------------------|
D -3333 x8 3/17--------------------------------|
A ---------------------------------------------|
E ---------------------------------------------|

e ---------------------------------------------|
B ---------------------------------------------|
G --------        bass riff       -------------|
D ---------------------------------------------|
A ---------------------------------------------|
E ---------------------------------------------|

"You blue rose." (2:31)

e ---------------------------------------------|
B ---------------------------------------------|
G ------------------------------2-4- x 5 ------|
D ---------------------------------------------|
A -0-2-0-2 x "lots" 2-5- x 5 ------------------|
E ---------------------------------------------|

"You'll see me on the moon, you'll be standing on the ground." (3:03)

e ---------------------------------------------|
B ---------------------------------------------| x 11ish
G ---------------------------------------------|
D ---------0-----------------------------------|
A -0-2---2---2---2-----------------------------|
E ---------------------------------------------|
pm . .   . . .   .

"I'll be drifting in another place not out of space,
just another place." (3:26)

e ---------------------------------------------|
B ---------------------------------------------| x 4
G ---------------------------------------------|
D -------0-----0-2~--------0-------------------|
A -0-2~----2p0~--------0-2---------------------|
E -------------------2-------------------------|

"I'll be standing on the moon while you're standing on the ground" (3:39)

e ---------------------------------------------|
B ---------------------5p0---------------------| x 4
G -2/4-4-7p4-4---7p4-4-----4-------------------|
D ---------------------------------------------|
A ---------------------------------------------|
E ---------------------------------------------|

e -----------------------7p0-------------------|
B -5/7-7-10p7-7---10p7-7-----5h7---------------| x 4
G ---------------------------------------------|
D ---------------------------------------------|
A ---------------------------------------------|
E ---------------------------------------------|

"You'll see me on the moon, you'll be standing on the ground." (4:05)

e ---------------------------------------------|
B ---------------------------------------------| x 4
G ---------------------------------------------|
D -------0-----0-2~--------0~------------------|
A -0-2~----2p0~--------0-2---------------------|
E -------------------2-------------------------|

e ---------------------------------------------|
B ---------------------------------------------|
G ---------------------------------------------|
D ---------------------------------------------|
A -0-2h0---------------------------------------|
E ---------------------------------------------|



TAAS - The Blue Rose

If this is an invitation, well then this is my RSVP.
So on your list you can scratch me off.
You aren't the foreground
and I am not the ground that you can just walk on.
I've had enough of the taste of your feet.
I'm not wasting away I'm just trying to get through my days,
you know like one small leap for mankind.
I'd say that at this point that 
scortched earth policies may be in my best interest.
My social respect...I am willing to lose.
Come on and drive it in, I've got pills for the pain.
Oh I'm so good at escaping that you'd never known I'd came.
I can wash away shadows and with you, just the same.
If you are a god sent then the devil's my dame.
You see it's me and my witchdoctor that need slits for our blades.
A velvet lining around a throat is all the rage.
A job is a job that won't produce this real change.
Let's drive it into a perfect paragraph
so we can form a perfect sentence.
Like "there are motor vehicle things that we can drive across states".
But we can try to figure out how to control our own lives,
these lives that we live for, and how could we forget
that we have to die for.
There are too many moons in your eyes
and not enough roses for those eyes.
I drift in and out of concious peaks
which causes a real bad case of sleep.
Your moves just slice through the air that you move through...
let us cut to the chase.
You blue rose.
(As I drift in and out of these unconcious peaks of memories)
Yes i've played parts in some of the greatest of movies,
I'm the best actor that you could meet.
No no this is it, I am over it, throwing the towel in.
Last rites of the greatest thesbian.
You'll see me on the moon and you'll be standing on the ground
like porcelain dolls you'll be speechless.
I'll be drifting in another place not out of space, just another place.
A dream finally realized.
I'll be flying with an angel dropping at it's feet.
Living in a cole mine caressing gods cheek.
I'll be standing on the moon while your standing on the ground
I'll be drifting in and out of conscious states.

enjoy
Добавлено: 25.04.2012
Вам также может быть интересно:
Другие материалы по этой песне:
  • Аккорды и текст

Страница создана 25.04.2012
http://primanota.ru/these-arms-are-snakes/the-blue-rose-chords.htm
Привет, Гость.
Предлагаем пройти революционный курс по гитаре.
Подарок от PrimaNota.Ru, забирай!