PrimaNota.ru - самый крупный в мире бесплатный архив песенных текстов, аккордов, табулатур и нот


There For Tomorrow - Saave - текст песни, таба, видео

Регистрация Запомнить меня
Войти через:  Facebook Google Twitter Vk Yandex Mail.ru

There For Tomorrow - Saave - текст песни, таба, видео

Печатать
Просмотров: 66
Уроки эстрадного вокала в Санкт-Петербурге
Tabbed by: Joshua Garcia (joshuag523@aol.com)

Tabs for the song: Saave by There For Tomorrow
Please rate and let me know if you have any corrections. Thank you.


Tuning: Drop C (C G C F A D)


Intro
Guitar 1:
D||-----7-7------------------------------7-7--|-------------------------------7-7--|
A||--10-------------------8-8-8-8-8-8-10------|--7-7-7-7-7-----8-8-8-8-8-8-10------|
F||---------9-9-9-9-9-7-9---------------------|------------9-7---------------------|
C||-------------------------------------------|------------------------------------|
G||-------------------------------------------|------------------------------------|
C||-------------------------------------------|------------------------------------|


D||-------------------------------7-7--|---------------------|
A||----------------8-8-8-8-8-8-10------|--7-7-7-7-7-----8\---|
F||--9-9-9-9-9-7-9---------------------|------------9-7------|
C||------------------------------------|---------------------|
G||------------------------------------|---------------------|
C||------------------------------------|---------------------|


Guitar 2:
D||---------------------------------------|-----------------------------------|
A||---------------------------------------|-----------------------------------|
F||----------------------5-5-5-5-5-5-5-5--|----------------5-5-5-5-5-5--------|
C||--5-5-4-2-2-2-0-0-2-2-5-5-5-5-5-5-5-5--|--2-2-2-0-0-2-2-5-5-5-5-5-5-5-5-4--|
G||--5-5-4-2-2-2-0-0-2-2-3-3-3-3-3-3-3-3--|--2-2-2-0-0-2-2-3-3-3-3-3-3-5-5-4--|
C||--5-5-4-2-2-2-0-0-2-2------------------|--2-2-2-0-0-2-2-------------5-5-4--|


D||---------------------------------|-------------------------------------|
A||---------------------------------|-------------------------------------|
F||----------------5-5-5-5-5-5-5-5--|---------------------5-5-5-----------|
C||--2-2-2-0-0-2-2-5-5-5-5-5-5-5-5--|--0-0-0-0-0-0-0-0----5-5-5----5-5-4--|
G||--2-2-2-0-0-2-2-3-3-3-3-3-3-3-3--|--0-0-0-0-0-0-0-0----3-3-3----5-5-4--|
C||--2-2-2-0-0-2-2------------------|--0-0-0-0-0-0-0-0-------------5-5-4--|



Verse
Guitar 1:
D||------------------|-----------7~--|------------------|-----------7~--|
A||-------------10~--|---------------|-------------10~--|---------------|
F||--7h9~---7-9------|--9~---7-9-----|--7h9~---7-9------|--9~---7-9-----|
C||------------------|---------------|------------------|---------------|
G||------------------|---------------|------------------|---------------|
C||------------------|---------------|------------------|---------------|


D||-----------------------------------|
A||--7-7-7-7-7-----8------------------|
F||------------9----------------------|
C||---------------------10--9--10-9~--|
G||-----------------------------------|
C||-----------------------------------|


Guitar 2:
D||--------|
A||--------|
F||--------|
C||--------|
G||--------|
C||--0h2~--|



Pre-Chorus
Guitar 1:
D||------------------|-----------7~--|------------------------------------------------------------|
A||-------------10~--|---------------|--7-7-7-7-7-----8-------------------------------------------|
F||--7h9~---7-9------|--9~---7-9-----|------------9-----------------------------------------------|
C||------------------|---------------|---------------------10--9--10-9-10-9-10-9-10-9-10-9-10-9\--|
G||------------------|---------------|------------------------------------------------------------|
C||------------------|---------------|------------------------------------------------------------|


Guitar 2:
D||----------------------------------------------------------------------|
A||----------------------------------------------------------------------|
F||----------------9---------------------------------9-------------------|
C||--9-9-9-9-9-9-9-9----5-5-5-5-5-5-5--9-9-9-9-9-9-9-9----5-5-5-5-5-5-5--|
G||--7-7-7-7-7-7-7-7----3-3-3-3-3-3-3--7-7-7-7-7-7-7-7----3-3-3-3-3-3-3--|
C||----------------------------------------------------------------------|
     . . . . . . .      . . . . . . .  . . . . . . .      . . . . . . .

D||----------------------------------------------------------------|
A||----------------------------------------------------------------|
F||----------------7-----------------------------------9-9-9-9-9\--|
C||--7-7-7-7-7-7-7-7----5-5-5-5-5-5-5--9-9-9-9-9-9-9-9-9-9-9-9-9\--|
G||--5-5-5-5-5-5-5-5----3-3-3-3-3-3-3--7-7-7-7-7-7-7-7-7-7-7-7-7\--|
C||----------------------------------------------------------------|
     . . . . . . .      . . . . . . .  . . . . . . . .



Chorus
Guitar 1:
D||--7--------------7~------------------|--7--------------7~------------------|
A||------7-8-7-------------7-8-7--------|------7-8-7-------------7-8-7--------|
F||----9-------9~--------9-------9-7-9--|----9-------9~--------9-------9-7-9--|
C||-------------------------------------|-------------------------------------|
G||-------------------------------------|-------------------------------------|
C||-------------------------------------|-------------------------------------|


D||--10--------------10~------------------|--7--------------7~------------------|
A||-------7-8-7--------------7-8-7--------|------7-8-7-------------7-8-7--------|
F||-----9-------9~---------9-------9-7-9--|----9-------9~--------9-------9-7-9--|
C||---------------------------------------|-------------------------------------|
G||---------------------------------------|-------------------------------------|
C||---------------------------------------|-------------------------------------|


Guitar 2:
D||-------------------------------------------------------------------|
A||-------------------------------------------------------------------|
F||--5-5-5-5-5-5-5-5-7-7-7-7-7-7-7-7----------------------------------|
C||--5-5-5-5-5-5-5-5-7-7-7-7-7-7-7-7-0-0-0-0-0-0-0-0-2-2-2-2-2-2-2-2--| x2
G||--3-3-3-3-3-3-3-3-5-5-5-5-5-5-5-5-0-0-0-0-0-0-0-0-2-2-2-2-2-2-2-2--|
C||----------------------------------0-0-0-0-0-0-0-0-2-2-2-2-2-2-2-2--|



Guitar 1:
D||-----------------------------------|--7---7----------------|
A||--------------7-7-7-8-8-8-8-8-8-8--|----8---8-8-8-7-7-7~\--|
F||--7-7-7-9-9-9----------------------|-----------------------|
C||-----------------------------------|-----------------------|
G||-----------------------------------|-----------------------|
C||-----------------------------------|-----------------------|


Guitar 2:
D||-------------------------------------------------------|
A||-------------------------------------------------------|
F||--5-5-5-5-5-5-5-5-7-7-7-7-7-7-7-7-5-5-5-5-5-5-5-5-7~\--|
C||--5-5-5-5-5-5-5-5-7-7-7-7-7-7-7-7-5-5-5-5-5-5-5-5-7~\--|
G||--3-3-3-3-3-3-3-3-5-5-5-5-5-5-5-5-3-3-3-3-3-3-3-3-5~\--|
C||-------------------------------------------------------|



Pre-Verse
Guitar 1:
D||-----7-7------------------------------7-7--|--------------------|
A||--10-------------------8-8-8-8-8-8-10------|--7-7-7-7-7-----8\--|
F||---------9-9-9-9-9-7-9---------------------|------------9-7-----|
C||-------------------------------------------|--------------------|
G||-------------------------------------------|--------------------|
C||-------------------------------------------|--------------------|


Guitar 2:
D||---------------------------------------|--------------------|
A||---------------------------------------|--------------------|
F||----------------------5-5-5-5-5-5-5-5--|----------------5\--|
C||--5-5-4-2-2-2-0-0-2-2-5-5-5-5-5-5-5-5--|--2-2-2-0-0-2-2-5\--|
G||--5-5-4-2-2-2-0-0-2-2-3-3-3-3-3-3-3-3--|--2-2-2-0-0-2-2-3\--|
C||--5-5-4-2-2-2-0-0-2-2------------------|--2-2-2-0-0-2-2-----|



Verse
Bass Solo



Pre-Chors
Guitar 1/2:
D||-----------------------------------------|------------------------------------|
A||-----------------------------------------|------------------------------------|
F||--7---7---7-7-\-5~-----7---7---7-7-\-5~--|------------------------------------|
C||--7---7---7-7-\-5~-----7---7---7-7-\-5~--|----4-5---4-5---4----2-5---2-5---2--|
G||--9-999-999-9-\-3~-----9-999-999-9-\-3~--|--5-----5-----5----3-----3-----3----|
C||-----------------------------------------|------------------------------------|
       ..  ..               ..  ..             . .   . .   . .  . .   . .   . .

D||-------------------------------------|
A||-------------------------------------|
F||------------------9-9-9-9-9-7-7-7-7--|
C||--9-9-9-9-9-9-9-9-9-9-9-9-9-7-7-7-7--|
G||--7-7-7-7-7-7-7-7-7-7-7-7-7-5-5-5-5--|
C||-------------------------------------|
     . . . . . . . .



Chorus
Guitar 1:
D||--7--------------7~------------------|--7--------------7~------------------|
A||------7-8-7-------------7-8-7--------|------7-8-7-------------7-8-7--------|
F||----9-------9~--------9-------9-7-9--|----9-------9~--------9-------9-7-9--|
C||-------------------------------------|-------------------------------------|
G||-------------------------------------|-------------------------------------|
C||-------------------------------------|-------------------------------------|


D||--10--------------10~------------------|--7--------------7~------------------|
A||-------7-8-7--------------7-8-7--------|------7-8-7-------------7-8-7--------|
F||-----9-------9~---------9-------9-7-9--|----9-------9~--------9-------9-7-9--|
C||---------------------------------------|-------------------------------------|
G||---------------------------------------|-------------------------------------|
C||---------------------------------------|-------------------------------------|


Guitar 2:
D||-------------------------------------------------------------------|
A||-------------------------------------------------------------------|
F||--5-5-5-5-5-5-5-5-7-7-7-7-7-7-7-7----------------------------------|
C||--5-5-5-5-5-5-5-5-7-7-7-7-7-7-7-7-0-0-0-0-0-0-0-0-2-2-2-2-2-2-2-2--| x2
G||--3-3-3-3-3-3-3-3-5-5-5-5-5-5-5-5-0-0-0-0-0-0-0-0-2-2-2-2-2-2-2-2--|
C||----------------------------------0-0-0-0-0-0-0-0-2-2-2-2-2-2-2-2--|



Guitar 1:
D||-----------------------------------|--7---7------------------------------|
A||--------------7-7-7-8-8-8-8-8-8-8--|----8---8-8-8-7-7-7-7-7-7-7-8-8-8-8--|
F||--7-7-7-9-9-9----------------------|-------------------------------------|
C||-----------------------------------|-------------------------------------|
G||-----------------------------------|-------------------------------------|
C||-----------------------------------|-------------------------------------|


Guitar 2:
D||-------------------------------------------------------------------|
A||-------------------------------------------------------------------|
F||--5-5-5-5-5-5-5-5-7-7-7-7-7-7-7-7----------------------------------|
C||--5-5-5-5-5-5-5-5-7-7-7-7-7-7-7-7-2-2-2-2-2-2-2-2-4-4-4-4-5-5-5-5--|
G||--3-3-3-3-3-3-3-3-5-5-5-5-5-5-5-5-2-2-2-2-2-2-2-2-4-4-4-4-5-5-5-5--|
C||----------------------------------2-2-2-2-2-2-2-2-4-4-4-4-5-5-5-5--|



Bridge
Guitar 1:
D||--7/12--0--7/14--0--7/12--0--7/14--0--7/10--0--5--|
A||--------------------------------------------------|
F||--------------------------------------------------|
C||--------------------------------------------------| x4
G||--------------------------------------------------|
C||--------------------------------------------------|


Guitar 2:
D||-------------------------------------------------------------------------------------------|
A||-------------------------------------------------------------------------------------------|
F||------------------------------------------12-12-12-12-12-12-12-12-10-10-10-10-10-10-10-10--|
C||--9-9-9-9-9-9-9-9-10-10-10-10-10-10-10-10-12-12-12-12-12-12-12-12-10-10-10-10-10-10-10-10--| x2
G||--9-9-9-9-9-9-9-9-10-10-10-10-10-10-10-10-10-10-10-10-10-10-10-10-9--9--9--9--9--9--9--9---|
C||--9-9-9-9-9-9-9-9-10-10-10-10-10-10-10-10--------------------------------------------------|



Guitar 1:
D||--9-9-9-9-9~\--|---------------------7/12--0--7/14--0--7/12--0--7/14--0--7/10--0--5--|
A||---------------|--8-8-8-8-7-7-7-7----------------------------------------------------|
F||---------------|---------------------------------------------------------------------|
C||---------------|---------------------------------------------------------------------|
G||---------------|---------------------------------------------------------------------|
C||---------------|---------------------------------------------------------------------|


Guitar 2:
D||---------------|---------------------------------------------------------------------------|
A||---------------|---------------------------------------------------------------------------|
F||---------------|--------------------------12-12-12-12-12-12-12-12-10-10-10-10-10-10-10-10--|
C||--9-9-9-9-9~\--|--10-10-10-10-10-10-10-10-12-12-12-12-12-12-12-12-10-10-10-10-10-10-10-10--|
G||--9-9-9-9-9~\--|--10-10-10-10-10-10-10-10-10-10-10-10-10-10-10-10-9--9--9--9--9--9--9--9---|
C||--9-9-9-9-9~\--|--10-10-10-10-10-10-10-10--------------------------------------------------|



Guitar 1:
D||--7/12--0--7/14--0--7/12--0--7/14--0--7/10--0--5--|
A||--------------------------------------------------|
F||--------------------------------------------------|
C||--------------------------------------------------| x2
G||--------------------------------------------------|
C||--------------------------------------------------|


D||--7/12--0--7/14--0--12/14-15~--|
A||-------------------------------|
F||-------------------------------|
C||-------------------------------|
G||-------------------------------|
C||-------------------------------|


Guitar 2:
D||----------------------------------------------------------------------|
A||----------------------------------------------------------------------|
F||------------------------------------------12-12-12-12-12-12-12-12-7~--|
C||--9-9-9-9-9-9-9-9-10-10-10-10-10-10-10-10-12-12-12-12-12-12-12-12-7~--|
G||--9-9-9-9-9-9-9-9-10-10-10-10-10-10-10-10-10-10-10-10-10-10-10-10-5~--|
C||--9-9-9-9-9-9-9-9-10-10-10-10-10-10-10-10-----------------------------|



Main Riff
Guitar 1:
D||-----7-7------------------------------7-7--|-------------------------------7-7--|
A||--10-------------------8-8-8-8-8-8-10------|--7-7-7-7-7-----8-8-8-8-8-8-10------|
F||---------9-9-9-9-9-7-9---------------------|------------9-7---------------------|
C||-------------------------------------------|------------------------------------|
G||-------------------------------------------|------------------------------------|
C||-------------------------------------------|------------------------------------|


D||-------------------------------7-7--|------------------------------|
A||----------------8-8-8-8-8-8-10------|--7-7-7-7-7-----8-8-8-8-8--7--|
F||--9-9-9-9-9-7-9---------------------|------------9-7---------------|
C||------------------------------------|------------------------------|
G||------------------------------------|------------------------------|
C||------------------------------------|------------------------------|


Guitar 2:
D||---------------------------------------|-----------------------------------|
A||---------------------------------------|-----------------------------------|
F||----------------------5-5-5-5-5-5-5-5--|----------------5-5-5-5-5-5--------|
C||--5-5-4-2-2-2-0-0-2-2-5-5-5-5-5-5-5-5--|--2-2-2-0-0-2-2-5-5-5-5-5-5-5-5-4--|
G||--5-5-4-2-2-2-0-0-2-2-3-3-3-3-3-3-3-3--|--2-2-2-0-0-2-2-3-3-3-3-3-3-5-5-4--|
C||--5-5-4-2-2-2-0-0-2-2------------------|--2-2-2-0-0-2-2-------------5-5-4--|


D||---------------------------------|--------------------------------|
A||---------------------------------|--------------------------------|
F||----------------5-5-5-5-5-5-5-5--|------------------5-5-5-5-------|
C||--2-2-2-0-0-2-2-5-5-5-5-5-5-5-5--|--0-0-0-0-0-0-0-0-5-5-5-5-5--4--|
G||--2-2-2-0-0-2-2-3-3-3-3-3-3-3-3--|--0-0-0-0-0-0-0-0-3-3-3-3-5--4--|
C||--2-2-2-0-0-2-2------------------|--0-0-0-0-0-0-0-0---------5--4--|



Chorus
Guitar 1:
D||-------------------------------------|--7--------------7~------------------|
A||-------------------------------------|------7-8-7-------------7-8-7--------|
F||-------------------------------------|----9-------9~--------9-------9-7-9--|
C||-------------------------------------|-------------------------------------|
G||-------------------------------------|-------------------------------------|
C||-------------------------------------|-------------------------------------|


D||--10--------------10~------------------|--7--------------7~------------------|
A||-------7-8-7--------------7-8-7--------|------7-8-7-------------7-8-7--------|
F||-----9-------9~---------9-------9-7-9--|----9-------9~--------9-------9-7-9--|
C||---------------------------------------|-------------------------------------|
G||---------------------------------------|-------------------------------------|
C||---------------------------------------|-------------------------------------|


Guitar 2:
D||-------------------------------------------------------------------|
A||-------------------------------------------------------------------|
F||--5-5-5-5-5-5-5-5-7-7-7-7-7-7-7-7----------------------------------|
C||--5-5-5-5-5-5-5-5-7-7-7-7-7-7-7-7-0-0-0-0-0-0-0-0-2-2-2-2-2-2-2-2--| x2
G||--3-3-3-3-3-3-3-3-5-5-5-5-5-5-5-5-0-0-0-0-0-0-0-0-2-2-2-2-2-2-2-2--|
C||----------------------------------0-0-0-0-0-0-0-0-2-2-2-2-2-2-2-2--|



Outro
Guitar 1:
D||--7/12--0--7/14--0--7/12--0--7/14--0--7/10--0--5--|
A||--------------------------------------------------|
F||--------------------------------------------------|
C||--------------------------------------------------| x3
G||--------------------------------------------------|
C||--------------------------------------------------|


D||--7/12--0--7/14--0--7/12--0--7/14--0--7/15--0--14--|
A||---------------------------------------------------|
F||---------------------------------------------------|
C||---------------------------------------------------|
G||---------------------------------------------------|
C||---------------------------------------------------|


Guitar 2:
D||-------------------------------------------------------------------|
A||-------------------------------------------------------------------|
F||--------------------------------------------------6-6-6-6-6-6-6-6--|
C||--5-5-5-5-5-5-5-5-0-0-0-0-0-0-0-0-2-2-2-2-2-2-2-2-6-6-6-6-6-6-6-6--|
G||--5-5-5-5-5-5-5-5-0-0-0-0-0-0-0-0-2-2-2-2-2-2-2-2-4-4-4-4-4-4-4-4--|
C||--5-5-5-5-5-5-5-5-0-0-0-0-0-0-0-0-2-2-2-2-2-2-2-2------------------|


D||----------------------------------------------------------------|
A||----------------------------------------------------------------|
F||--5-5-5-5-5-5-5-5-7-7-7-7-7-7-7-7-5-5-5-5-5-5-5-5-7-7-7-7-------|
C||--5-5-5-5-5-5-5-5-7-7-7-7-7-7-7-7-5-5-5-5-5-5-5-5-7-7-7-7-5--4--|
G||--3-3-3-3-3-3-3-3-5-5-5-5-5-5-5-5-3-3-3-3-3-3-3-3-5-5-5-5-5--4--|
C||----------------------------------------------------------5--4--|




Tablature Legend
----------------
 h   - hammer-on
 p   - pull-off
 b   - bend
 r   - release bend
 *   - pinch harmonic
 '   - natural harmonic
 x   - mute note
 .   - palm mute
 /   - slide down
 \   - slide up
Добавлено: 27.06.2013
Другие материалы по этой песне:
  • Аккорды и текст

Страница создана 27.06.2013
http://primanota.ru/there-for-tomorrow/saave-chords.htm
Привет, Гость.
Предлагаем пройти революционный курс по гитаре.
Подарок от PrimaNota.Ru, забирай!