PrimaNota.ru - самый крупный в мире бесплатный архив песенных текстов, аккордов, табулатур и нот


There For Tomorrow - Remember When - таба, видео

Регистрация Запомнить меня
Войти через:  Facebook Google Twitter Vk Yandex Mail.ru

There For Tomorrow - Remember When - таба, видео

Печатать
Просмотров: 54
Tabbed by: Joshua Garcia (joshuag523@aol.com)

Tabs for the song: Remember When by There For Tomorrow
Please rate and let me know if you have any corrections. Thank you.


Tuning: Drop C# (C# G# C# F# A# D#)


Intro
Guitar 1:
D#||-----------------------------------------------------------------------------------|
A#||-----------------------------------------------------------------------------------|
F#||--11-11-11-11-11-11-11-11-14-14-14-14-14-14-14-14-7-7-7-7-7-7-7-7-7-7-7-7-7-7-7-7--|
C#||--9--9--9--9--9--9--9--9--12-12-12-12-12-12-12-12-5-5-5-5-5-5-5-5-5-5-5-5-5-5-5-5--| x3
G#||-----------------------------------------------------------------------------------|
C#||-----------------------------------------------------------------------------------|
      .  .  .  .  .  .  .  .  .  .  .  .  .  .  .  .  . . . . . . . . . . . . . . . .


D#||---------------------------------------------------------------------------|
A#||---------------------------------------------------------------------------|
F#||--11-11-11-11-11-11-11-11-9-9-9-9-9-9-9-9-7-7-7-7-7-7-7-7-7-7-7-7-7-7-7-7--|
C#||--9--9--9--9--9--9--9--9--7-7-7-7-7-7-7-7-5-5-5-5-5-5-5-5-5-5-5-5-5-5-5-5--|
G#||---------------------------------------------------------------------------|
C#||---------------------------------------------------------------------------|
      .  .  .  .  .  .  .  .  . . . . . . . . . . . . . . . . . . . . .


Guitar 2 (Fade in):
D#||-------------------------|
A#||-------------------------|
F#||----------11---------11--|
C#||--9-11-12----9-11-12-----| (Repeat until Verse)
G#||-------------------------|
C#||-------------------------|


Guitar 3 (Fade in):
D#||-------------------------------9------------------------------------------|
A#||-----------10--------------7-----7---7----------7----------------7-7-7-7--|
F#||------11------11---11-----------------------7-----7---7------7-----7-7-7--|
C#||--9-9----9-------9-----7-7---7-----7----5-5---5-----5----7-7---7----------|
G#||--------------------------------------------------------------------------|
C#||--------------------------------------------------------------------------|
      . .    .       .     . .   .     .    . .   .     .    . .   .



Verse
Guitar 1:
D#||------------------------------------7/9-9-9-10-7-7-7-7/9-9-9-10--------------|
A#||------10---10-----------10---10---------------------------------12\10-10-10--|
F#||--7-7----7----7-7-7-7-7----7----7-7------------------------------------------|
C#||-----------------------------------------------------------------------------|
G#||-----------------------------------------------------------------------------|
C#||-----------------------------------------------------------------------------|
      . .    .    . . . . .    .    . .


D#||------------------------------------7/9-9-9-10-7-7-7-7/9-9-9-10------|
A#||------10---10-----------10---10---------------------------------10\--|
F#||--7-7----7----7-7-7-7-7----7----7-7----------------------------------|
C#||---------------------------------------------------------------------|
G#||---------------------------------------------------------------------|
C#||---------------------------------------------------------------------|
      . .    .    . . . . .    .    . .


Guitar 2:
D#||----------------------------------|----------------------------------|
A#||----------------------------------|----------------------------------|
F#||----------------------------------|----------------------------------|
C#||----------------------------------|------------------------7-----7\--|
G#||----------------------------------|----------------------7-7-7-7-7\--|
C#||----------------------------------|----------------------7-7-7-7-7\--|
                                                             .   . .



Chorus
Guitar 1/2:
D#||-----------------------------------------------------------------------------------|
A#||-----------------------------------------------------------------------------------|
F#||-----------------------------------------------------------------------------------|
C#||--12-12-12-12-12-12-12-12-11-11-11-11-11-11-11-11-7-7-7-7-7-7-7-7-7-7-7-7-7-7-7-7--|
G#||--12-12-12-12-12-12-12-12-12-12-12-12-12-12-12-12-7-7-7-7-7-7-7-7-7-7-7-7-7-7-7-7--|
C#||--12-12-12-12-12-12-12-12-11-11-11-11-11-11-11-11-7-7-7-7-7-7-7-7-7-7-7-7-7-7-7-7--|


D#||------------------------------------------------------------------------------|
A#||------------------------------------------------------------------------------|
F#||------------------------------------------------------------------------------|
C#||--9-9------------12---7-7------------12---5-------------------------------5~--|
G#||--9-9--9-9-10-10----0-7-7--9-9-10-10----0-5-5-5-5-5-5-5-5-7-7-7-7-7-7-7-7-5~--|
C#||--9-9-----------------7-7-----------------5-5-5-5-5-5-5-5-7-7-7-7-7-7-7-7-5~--|
           . . .  .            . . .  .         . . . . . . . . . . . . . . .


Guitar 2:
D#||-----------------------------------------|
A#||-----------------------------------------|
F#||----------11---------11---------11-------|
C#||--9-11-12----9-11-12----9-11-12----9-11--|
G#||-----------------------------------------|
C#||-----------------------------------------|



Verse
Guitar 1/2:
D#||-------------------------------------------------------------------------------|
A#||-------------------------------------------------------------------------------|
F#||-------------------------------------------------------------------------------|
C#||-------------------------------------------------------------------------------| x2
G#||-------------------------------------------------------------------------------|
C#||--9999999999999999-1212121212121212-44444444-55555555555555555555555555555555--|


Guitar 1 (tremelo):
D#||---------------------------------------------------------------|
A#||--7777777777777777-1010101010101010----------------------------|
F#||---------------------------------------------------------------|
C#||------------------------------------77777777-9999999999999999--|
G#||---------------------------------------------------------------|
C#||---------------------------------------------------------------|


D#||----------------------------------------------------7777777777777777-9999---|
A#||--7777777777777777-10101010101010101010101010101010-------------------------|
F#||----------------------------------------------------------------------------|
C#||----------------------------------------------------------------------------|
G#||----------------------------------------------------------------------------|
C#||----------------------------------------------------------------------------|


D#||--101010101010101010101010/1414141414141414--|
A#||---------------------------------------------|
F#||---------------------------------------------|
C#||---------------------------------------------|
G#||---------------------------------------------|
C#||---------------------------------------------|


Guitar 2:
D#||---------------------------------------------------------------------------------------|
A#||---------------------------------------------------------------------------------------|
F#||------11-11-11-11-11-11-11-11-14-14-14-14-14-14-14-14-7-7-7-7-7-7-7-7-7-7-7-7-7-7-7-7--|
C#||--\\--9--9--9--9--9--9--9--9--12-12-12-12-12-12-12-12-5-5-5-5-5-5-5-5-5-5-5-5-5-5-5-5--|
G#||--\\-----------------------------------------------------------------------------------|
C#||--\\-----------------------------------------------------------------------------------|


D#||---------------------------------------------------------------------------|
A#||---------------------------------------------------------------------------|
F#||--11-11-11-11-11-11-11-11-14-14-14-14-14-14-14-14-7-7-7-7-7-7-7-7-7-7-7-7--|
C#||--9--9--9--9--9--9--9--9--12-12-12-12-12-12-12-12-5-5-5-5-5-5-5-5-5-5-5-5--|
G#||---------------------------------------------------------------------------|
C#||---------------------------------------------------------------------------|


D#||-------------------------|
A#||-------------------------|
F#||--111111111111111111111--|
C#||--9--9--9--9--9--9--9----|
G#||-------------------------|
C#||-------------------------|



Pre-Chorus
Guitar 1/2:
D#||----------------------------|
A#||----------------------------|
F#||----------------------------|
C#||--7777777----------7777777--|
G#||--5555555----------5555555--|
C#||--5555555----------5555555--|


D#||-------------------------------------|
A#||-------------------------------------|
F#||-------------------------------------|
C#||-------------------------------------|
G#||-------------------------------------|
C#||--4444444444444444-7777777777777777--|


Guitar 1:
D#||------------------------------------7/9-9-9-10-7-7-7-7/9-9-9-10------|
A#||------10---10-----------10---10---------------------------------10\--|
F#||--7-7----7----7-7-7-7-7----7----7-7----------------------------------|
C#||---------------------------------------------------------------------|
G#||---------------------------------------------------------------------|
C#||---------------------------------------------------------------------|
      . .    .    . . . . .    .    . .


Guitar 2:
D#||----------------------------------------------------------------|
A#||----------------------------------------------------------------|
F#||----------------------------------------------------------------|
C#||----------------------------------------------------------------|
G#||----------------------------------------------------------------|
C#||--55555555555555555555555555555555-4444444444444444-777777777\--|



Chorus
Guitar 1/2:
D#||-----------------------------------------------------------------------------------|
A#||-----------------------------------------------------------------------------------|
F#||-----------------------------------------------------------------------------------|
C#||--0-0-0-0-0-0-0-0-0-0-0-0-0-0-0-0-11-11-11-11-11-11-11-11-11-11-11-11-11-11-11-11--|
G#||--0-0-0-0-0-0-0-0-0-0-0-0-0-0-0-0-12-12-12-12-12-12-12-12-12-12-12-12-12-12-12-12--|
C#||--0-0-0-0-0-0-0-0-0-0-0-0-0-0-0-0-11-11-11-11-11-11-11-11-11-11-11-11-11-11-11-11--|


Guitar 1:
D#||-----------------------------------------------------------------------------------|
A#||-----------------------------------------------------------------------------------|
F#||-----------------------------------------------------------------------------------|
C#||--9999999999999999-11111111111111111111111111111111--------------------------------|
G#||----------------------------------------------------121212121212121212121212-9999--|
C#||-----------------------------------------------------------------------------------|
                       (^11's)

D#||-------------------------------------|
A#||-------------------------------------|
F#||-------------------------------------|
C#||--1111111111111111-1212121212121212--|
G#||-------------------------------------|
C#||-------------------------------------|
     (^11's)


Guitar 2:
D#||-------------------------------------------------------------------|
A#||-------------------------------------------------------------------|
F#||-------------------------------------------------------------------|
C#||--9-9-9-9-9-9-9-9-7-7-7-7-7-7-7-7-5-5-5-5-5-5-5-5-7-7-7-7-7-7-7-7--|
G#||--9-9-9-9-9-9-9-9-7-7-7-7-7-7-7-7-5-5-5-5-5-5-5-5-7-7-7-7-7-7-7-7--|
C#||--9-9-9-9-9-9-9-9-7-7-7-7-7-7-7-7-5-5-5-5-5-5-5-5-7-7-7-7-7-7-7-7--|



Guitar 1:
D#||--17-------17-17----------17-------17-------17/19-17-------17-17----------17-----|
A#||-----15-15-------15-15-15----15-15----15-15----------14-14-------14-14-14----14--|
F#||---------------------------------------------------------------------------------|
C#||---------------------------------------------------------------------------------|
G#||---------------------------------------------------------------------------------|
C#||---------------------------------------------------------------------------------|


D#||--15-14-14---------------|
A#||-----------17-17-14-15\--|
F#||-------------------------|
C#||-------------------------|
G#||-------------------------|
C#||-------------------------|


Guitar 2:
D#||----------------------------------------------------------------------|
A#||----------------------------------------------------------------------|
F#||----------------------------------------------------------------------|
C#||--5-5-5-5-5-5-5-5-5-5-5-5-5-5-5-5-7-7-7-7-7-7-7-7-7-7-7-7-7-7-7-7-9\--|
G#||--5-5-5-5-5-5-5-5-5-5-5-5-5-5-5-5-7-7-7-7-7-7-7-7-7-7-7-7-7-7-7-7-9\--|
C#||--5-5-5-5-5-5-5-5-5-5-5-5-5-5-5-5-7-7-7-7-7-7-7-7-7-7-7-7-7-7-7-7-9\--|



Pre-Verse
Guitar 1:
D#||-------------------------------------------|
A#||-------------------------------------------|
F#||--7777---7777---77--------------6666---66--|
C#||--xxxx---xxxx---xx--------------xxxx---xx--|
G#||--5555---5555---55--------------4444---44--|
C#||-------------------------------------------|


Guitar 2:
D#||------------------------------------------|
A#||------------------------------------------|
F#||------------------------------------------|
C#||---------------------11111111-------------|
G#||---------------------7-7-7-7--------------|
C#||---------------------7-7-7-7--------------|


Guitar 1/2:
D#||---------------------------------------|
A#||---------------------------------------|
F#||---------------------------------------|
C#||--7777---7777---77---7777---7777---77--|
G#||--5555---5555---55---5555---5555---55--|
C#||--5555---5555---55---5555---5555---55--|



Guitar 1:
D#||-------------------------------------------------------------------|
A#||-------------------------------------------------------------------|
F#||--11111111111111111111111111111111-99999999------------------------|
C#||--------------------------------------------77777777-999999999999--|
G#||-------------------------------------------------------------------|
C#||-------------------------------------------------------------------|
     (^11's)


Guitar 2:
D#||-------------------------------------------------------------------------------|
A#||-------------------------------------------------------------------------------|
F#||-------------------------------------------------------------------------------|
C#||--12121212---12121212---1212---11111111---1111111111---1111--7777---7777---77--|
G#||--9-9-9-9----9-9-9-9----9-9----7-7-7-7----7-7-7-7-7----7-7---5555---5555---55--|
C#||--9-9-9-9----9-9-9-9----9-9----7-7-7-7----7-7-7-7-7----7-7---5555---5555---55--|


D#||-------------------------------|
A#||-------------------------------|
F#||-------------------------------|
C#||--11111111---(11111111)--------|
G#||--7-7-7-7----(7-7-7-7-)---10~--|
C#||--7-7-7-7----(7-7-7-7-)--------|



Bridge
Guitar 1:
D#||--------------------14-14-------------------14-14--|
A#||-----------15-15-15----------------15-15-15--------|
F#||--12-12-12----------------12-12-12-----------------|
C#||---------------------------------------------------|
G#||---------------------------------------------------|
C#||---------------------------------------------------|


D#||--------------------12-12-------------------12-12--|
A#||-----------15-15-15----------------15-15-15--------|
F#||--11-11-11----------------14-14-14-----------------|
C#||---------------------------------------------------|
G#||---------------------------------------------------|
C#||---------------------------------------------------|


Guitar 2:
D#||---------------------------------------------------------------------------|
A#||---------------------------------------------------------------------------|
F#||---------------------------------------------------------------------------|
C#||--10-10-10-10-10-10-10-10-5-5-5-5-5-5-5-5-0-0-0-0-0-0-0-0-7-7-7-7-7-7-7-9--|
G#||--10-10-10-10-10-10-10-10-5-5-5-5-5-5-5-5-0-0-0-0-0-0-0-0-7-7-7-7-7-7-7-9--|
C#||--10-10-10-10-10-10-10-10-5-5-5-5-5-5-5-5-0-0-0-0-0-0-0-0-7-7-7-7-7-7-7-9--|



Guitar 1:
D#||--------------14-12-------------------14-12--------|
A#||--------15----------15----------15----------15-----|
F#||--12-12----12----------12-12-12----12----------12--|
C#||---------------------------------------------------|
G#||---------------------------------------------------|
C#||---------------------------------------------------|


D#||--------------14-12-------------------12---------------|
A#||--------15----------15----------15-------15-14----15~--|
F#||--11-11----11----------11-14-14----14----------14------|
C#||-------------------------------------------------------|
G#||-------------------------------------------------------|
C#||-------------------------------------------------------|


Guitar 2:
D#||----------------------------------------------------------------------------|
A#||----------------------------------------------------------------------------|
F#||----------------------------------------------------------------------------|
C#||--10-10-10-10-10-10-10-10-5-5-5-5-5-5-5-5-0-0-0-0-0-0-0-0-7-7-7-7-7-7-7-9~--|
G#||--10-10-10-10-10-10-10-10-5-5-5-5-5-5-5-5-0-0-0-0-0-0-0-0-7-7-7-7-7-7-7-9~--|
C#||--10-10-10-10-10-10-10-10-5-5-5-5-5-5-5-5-0-0-0-0-0-0-0-0-7-7-7-7-7-7-7-9~--|



Interlude
Guitar 1/2 (Fade in):
D#||-------------------------|
A#||-------------------------|
F#||----------11---------11--|
C#||--9-11-12----9-11-12-----| x4
G#||-------------------------|
C#||-------------------------|


D#||------|
A#||------|
F#||------|
C#||--9\--|
G#||--9\--|
C#||--9\--|


D#||--------------------------------------------------------------|
A#||--------------------------------------------------------------|
F#||--------------------------------------------------------------|
C#||--0-0-0-0-0-0-0-0-0-0-0-0-0-0-0-0-7-7-7-7-7-7-7-7-7-7-7-7-7\--|
G#||--0-0-0-0-0-0-0-0-0-0-0-0-0-0-0-0-7-7-7-7-7-7-7-7-7-7-7-7-7\--|
C#||--0-0-0-0-0-0-0-0-0-0-0-0-0-0-0-0-7-7-7-7-7-7-7-7-7-7-7-7-7\--|
      . . . . . . . . . . . . . . . . . . . . . . . . .



Chorus
Guitar 1/2:
D#||-----------------------------------------------------------------------------------|
A#||-----------------------------------------------------------------------------------|
F#||-----------------------------------------------------------------------------------|
C#||--0-0-0-0-0-0-0-0-0-0-0-0-0-0-0-0-11-11-11-11-11-11-11-11-11-11-11-11-11-11-11-11--|
G#||--0-0-0-0-0-0-0-0-0-0-0-0-0-0-0-0-12-12-12-12-12-12-12-12-12-12-12-12-12-12-12-12--|
C#||--0-0-0-0-0-0-0-0-0-0-0-0-0-0-0-0-11-11-11-11-11-11-11-11-11-11-11-11-11-11-11-11--|


Guitar 1:
D#||-----------------------------------------------------------------------------------|
A#||-----------------------------------------------------------------------------------|
F#||-----------------------------------------------------------------------------------|
C#||--9999999999999999-11111111111111111111111111111111--------------------------------|
G#||----------------------------------------------------121212121212121212121212-9999--|
C#||-----------------------------------------------------------------------------------|
                       (^11's)

D#||-------------------------------------|
A#||-------------------------------------|
F#||-------------------------------------|
C#||--1111111111111111-1212121212121212--|
G#||-------------------------------------|
C#||-------------------------------------|
     (^11's)


Guitar 2:
D#||-------------------------------------------------------------------|
A#||-------------------------------------------------------------------|
F#||-------------------------------------------------------------------|
C#||--9-9-9-9-9-9-9-9-7-7-7-7-7-7-7-7-5-5-5-5-5-5-5-5-7-7-7-7-7-7-7-7--|
G#||--9-9-9-9-9-9-9-9-7-7-7-7-7-7-7-7-5-5-5-5-5-5-5-5-7-7-7-7-7-7-7-7--|
C#||--9-9-9-9-9-9-9-9-7-7-7-7-7-7-7-7-5-5-5-5-5-5-5-5-7-7-7-7-7-7-7-7--|



Outro
Guitar 1:
D#||--------------------------------------------------------------------------------------|
A#||--------------------------------------------------------------------------------------|
F#||--11111111111111111111111111111111-99999999-------------------------------------------|
C#||--------------------------------------------77777777-9999999999999999999999999999999--|
G#||--------------------------------------------------------------------------------------|
C#||--------------------------------------------------------------------------------------|
     (^11's)


Guitar 2:
D#||-------------------------------------------------------------------------------|
A#||-------------------------------------------------------------------------------|
F#||-------------------------------------------------------------------------------|
C#||--12121212---12121212---1212---11111111---1111111111---1111--7777---7777---77--|
G#||--9-9-9-9----9-9-9-9----9-9----7-7-7-7----7-7-7-7-7----7-7---5555---5555---55--|
C#||--9-9-9-9----9-9-9-9----9-9----7-7-7-7----7-7-7-7-7----7-7---5555---5555---55--|


D#||--------------------|
A#||--------------------|
F#||--------------------|
C#||--7777---7777---77--|
G#||--5555---5555---55--|
C#||--5555---5555---55--|



Guitar 1/2:
D#||-------------------------------------------------------------------------------|
A#||-------------------------------------------------------------------------------|
F#||-------------------------------------------------------------------------------|
C#||--12121212121212121212121212121212-1616161616161616-77777777-9999999999999999--| (Repeat)
G#||--x-x-x-x-x-x-x-x-x-x-x-x-x-x-x-x--x-x-x-x-x-x-x-x--xxxxxxxx-xxxxxxxxxxxxxxxx--| (Fade out)
C#||--9-9-9-9-9-9-9-9-9-9-9-9-9-9-9-9--1212121212121212-44444444-5555555555555555--|




Tablature Legend
----------------
 h   - hammer-on
 p   - pull-off
 b   - bend
 r   - release bend
 *   - pinch harmonic
 '   - natural harmonic
 x   - mute note
 .   - palm mute
 /   - slide down
 \   - slide up
Добавлено: 16.12.2013
Другие материалы по этой песне:
  • Аккорды и текст

Страница создана 16.12.2013
http://primanota.ru/there-for-tomorrow/remember-when-chords.htm
Привет, Гость.
Предлагаем пройти революционный курс по гитаре.
Подарок от PrimaNota.Ru, забирай!