PrimaNota.ru - самый крупный в мире бесплатный архив песенных текстов, аккордов, табулатур и нот


There For Tomorrow - 18 - таба, видео

Регистрация Запомнить меня
Войти через:  Facebook Google Twitter Vk Yandex Mail.ru

There For Tomorrow - 18 - таба, видео

Печатать
Просмотров: 100
Уроки эстрадного вокала в Санкт-Петербурге
Tabbed by: Joshua Garcia (joshuag523@aol.com)

Tabs for the song: 18 by There For Tomorrow
Please rate and let me know if you have any corrections. Thank you.


*NOTE - This song has a custom tuning to it. The tuning is between Drop C#
and Drop C. So it would be Drop C# a quarter step down or Drop C a quarter
step up on all strings. *


Tuning: Drop C# (C# G# C# F# A# D#) quarter step down


Intro
Guitar 1:
||----------------------------------------------------------------------|
||----------------------------------------------------------------------|
||----------------------------------------------------------------------|
||----------------------------------------------------------------------|
||------------------------------------55555555555555555555555555555555--|
||--9999999999999999-7777777777777777-----------------------------------|
    ................ ................ ................................


||------------------------------------------------------|
||------------------------------------------------------|
||------------------------------------------------------|
||------------------------------------------------------|
||------------------------------------5555555555555555--|
||--9999999999999999-7777777777777777-------------------|
    ................ ................ ................


Guitar 1/2:
||-------|
||-------|
||-------|
||--7b~--|
||--5b~--|
||-------|



Guitar 1:
||------------------------------------------------------------------------------|
||------------------------------------------------------------------------------|
||------------------------------------------------------------------------------|
||--1212--12----------1212--12----------1212--12----------1212--12--------------|
||--9-9---9-----------9-9---9-----------9-9---9-----------9-9---9---------------|
||--9-9---9-----------9-9---9-----------9-9---9-----------9-9---9---------------|


Guitar 2:
||------------------------------------------------------------------------------|
||------------------------------------------------------------------------------|
||------------7--7-7------------6--6-6------------7--7-7------------6--6-6/7\6--|
||------------x--x-x------------x--x-x------------x--x-x------------x--x-x/x\x--|
||------------5--5-5------------4--4-4------------5--5-5------------4--4-4/5\4--|
||------------------------------------------------------------------------------|



Verse
Guitar 1:
||--------------------------------------------------------------------|
||--------------------------------------------------------------------|
||--------------------------------------------------------------------|
||--------------------------------------------------------------------|
||--------------------------------------------------------------------|
||--9999999999999999999999999999999999999999999999999999999999999999--|
    ................................................................


||-------------------------------------------------------------------|
||-------------------------------------------------------------------|
||-------------------------------------------------------------------|
||-------------------------------------------------------------------|
||---------------------------------------------------------------5\--|
||--5555555555555555-2222222222222222-9999999999999999999999999995\--|
    ................ ................ ...........................



Pre-Chorus
Guitar 1:
||-----------------------------------------------------|
||-----------------------------------------------------|
||-----------------------------------------------------|
||-------------1212----1212------------1212-1111-------|
||-----------------------------------------------1212--|
||--9999999999------9-------9999999999-----------------|
                                           (^11's)

||-----------------------------------------------------|
||-----------------------------------------------------|
||-----------------------------------------------1111--|
||-------------1212----1212------------1212-1111-------|
||-----------------------------------------------------|
||--9999999999------9-------9999999999-----------------|


||-------------------------------------------|--------------------|
||-------------------------------------------|--------------------|
||---------------------------------44----44--|--------------------|
||-------------77----77----------------------|--------------------|
||-------------------------------------------|--------------------|
||--5555555555----5-----2222222222----2------|--9999999999999999--|


Guitar 2:
||---------------------------------|
||---------------------------------|
||--7---7---7---7---6---6---6---6--|
||--x---x---x---x---x---x---x---x--| x3
||--5---5---5---5---5---5---5---5--|
||---------------------------------|


||-----------------|
||-----------------|
||--7---7---7---7--|
||--x---x---x---x--|
||--5---5---5---5--|
||-----------------|


Guitar 1/2:
||---------|
||---------|
||--6~br~--|
||--x------|
||--5~-----|
||---------|



Chorus
Guitar 1/2:
||---------------------------------------|---------------------------------------------|
||---------------------------------------|---------------------------------------------|
||---------------------------------------|---------------------------------------------|
||--55555555-77777777-99999999-00000000--|--55555555-77777777-99999999--0-0-0---5-5-5--|
||--55555555-77777777-99999999-00000000--|--55555555-77777777-99999999--0-0-0---5-5-5--|
||--55555555-77777777-99999999-00000000--|--55555555-77777777-99999999--0-0-0---5-5-5--|



Pre-Verse
Guitar 1/2:
||-----------------------------------------------------|
||-----------------------------------------------------|
||-----------------------------------------------------|
||-------------1212----1212------------1212-1111-------|
||-----------------------------------------------1212--|
||--9999999999------9-------9999999999-----------------|
                                           

||-----------------------------------------------------|
||-----------------------------------------------------|
||-----------------------------------------------1111--|
||-------------1212----1212-----------/1212-1111-------|
||------------------------------------/----------------|
||--9999999999------9-------9999999999/----------------|



Verse
Guitar 1:
||--------------------------------------------------------------------|
||--------------------------------------------------------------------|
||--------------------------------------------------------------------|
||--------------------------------------------------------------------|
||--------------------------------------------------------------------|
||--9999999999999999999999999999999999999999999999999999999999999999--|
    ................................................................


||-------------------------------------------------------------------|
||-------------------------------------------------------------------|
||-------------------------------------------------------------------|
||-------------------------------------------------------------------|
||---------------------------------------------------------------5/--|
||--5555555555555555-2222222222222222-9999999999999999999999999995/--|
    ................ ................ ...........................


Guitar 2:
||---------------------------------|
||---------------------------------|
||--7---7---7---7---6---6---6---6--|
||--x---x---x---x---x---x---x---x--| x3
||--5---5---5---5---5---5---5---5--|
||---------------------------------|


||-----------------|------------------|
||-----------------|------------------|
||--7---7---7---7--|--7~---6-7~-------|
||--x---x---x---x--|--x----x-x---///--|
||--5---5---5---5--|--5~---5-5~--///--|
||-----------------|-------------///--|



Pre-Chorus
Guitar 1:
||-----------------------------------------------------|
||-----------------------------------------------------|
||-----------------------------------------------------|
||-------------1212----1212------------1212-1111-------|
||-----------------------------------------------1212--|
||--9999999999------9-------9999999999-----------------|


||-----------------------------------------------------|
||-----------------------------------------------------|
||-----------------------------------------------1111--|
||-------------1212----1212------------1212-1111-------|
||-----------------------------------------------------|
||--9999999999------9-------9999999999-----------------|


||-------------------------------------------|------------------------------------|
||-------------------------------------------|------------------------------------|
||---------------------------------44----44--|------------------------------------|
||-------------77----77----------------------|------------------------------------|
||-------------------------------------------|------------------------------------|
||--5555555555----5-----2222222222----2------|--99999999999999999999999999999999--|


Guitar 2:
||---------------------------------|
||---------------------------------|
||--7---7---7---7---6---6---6---6--|
||--x---x---x---x---x---x---x---x--| x3
||--5---5---5---5---5---5---5---5--|
||---------------------------------|


||-----------------|---------------|
||-----------------|---------------|
||--7---7---7---7--|--6b7r6b7r6~~--|
||--x---x---x---x--|---------------|
||--5---5---5---5--|---------------|
||-----------------|---------------|



Chorus
Guitar 1/2:
||---------------------------------------|
||---------------------------------------|
||---------------------------------------|
||--55555555-77777777-99999999-00000000--| x2
||--55555555-77777777-99999999-00000000--|
||--55555555-77777777-99999999-00000000--|


||--------------------------------------|
||--------------------------------------|
||--------------------------------------|
||--5-5-5-5--7-7-7-7--9-9-9-9--0-0-0-0--|
||--5-5-5-5--7-7-7-7--9-9-9-9--0-0-0-0--|
||--5-5-5-5--7-7-7-7--9-9-9-9--0-0-0-0--|


||---------------------|
||---------------------|
||---------------------|
||--5-5-5-5-------777--|
||--5-5-5-5--77777777--|
||--5-5-5-5--77777777--|
             ....     



Bridge
Guitar 1:
||--------------------------------------------------------|
||--------------------------------------------------------|
||--7-7-7-7-7-7-7---6-6-6-6-6-6-6---11-11-11-11-11-11-11--|
||--x-x-x-x-x-x-x---x-x-x-x-x-x-x---x--x--x--x--x--x--x---|
||--5-5-5-5-5-5-5---5-5-5-5-5-5-5---9--9--9--9--9--9--9---|
||--------------------------------------------------------|


Guitar 2:
||-------------------------------------------------|
||-------------------------------------------------|
||-------------------------------------------------|
||--5-5-5-5-5-5-5---5-5-5-5-5-5-5---0-0-0-0-0-0-0--|
||--5-5-5-5-5-5-5---5-5-5-5-5-5-5---0-0-0-0-0-0-0--|
||--5-5-5-5-5-5-5---5-5-5-5-5-5-5---0-0-0-0-0-0-0--|


Guitar 1/2:
||-------------------|
||-------------------|
||--7-7/11-11\6-6-4--|
||--x-x/x--x-\x-x-x--| (All x2)
||--5-5/9--9-\4-4-2--|
||-------------------|



Guitar 1:
||--------------------------------------------------------|
||--------------------------------------------------------|
||--7-7-7-7-7-7-7-7-6-6-6-6-6-6-6---11-11-11-11-11-11-11--|
||--x-x-x-x-x-x-x-x-x-x-x-x-x-x-x---x--x--x--x--x--x--x---|
||--5-5-5-5-5-5-5-5-5-5-5-5-5-5-5---9--9--9--9--9--9--9---|
||--------------------------------------------------------|


Guitar 2:
||-------------------------------------------------|
||-------------------------------------------------|
||-------------------------------------------------|
||--5-5-5-5-5-5-5-5-5-5-5-5-5-5-5---0-0-0-0-0-0-0--|
||--5-5-5-5-5-5-5-5-5-5-5-5-5-5-5---0-0-0-0-0-0-0--|
||--5-5-5-5-5-5-5-5-5-5-5-5-5-5-5---0-0-0-0-0-0-0--|


Guitar 1/2:
||-------------------|
||-------------------|
||--7-7/11-11\6-6-4--|
||--x-x/x--x-\x-x-x--|
||--5-5/9--9-\4-4-2--|
||-------------------|



Guitar 1:
||--------------------------------------------------------|
||--------------------------------------------------------|
||--7-7-7-7-7-7-7-7-6-6-6-6-6-6-6---11-11-11-11-11-11-11--|
||--x-x-x-x-x-x-x-x-x-x-x-x-x-x-x---x--x--x--x--x--x--x---|
||--5-5-5-5-5-5-5-5-5-5-5-5-5-5-5---9--9--9--9--9--9--9---|
||--------------------------------------------------------|


Guitar 2:
||-------------------------------------------------|
||-------------------------------------------------|
||-------------------------------------------------|
||--5-5-5-5-5-5-5-5-5-5-5-5-5-5-5---0-0-0-0-0-0-0--|
||--5-5-5-5-5-5-5-5-5-5-5-5-5-5-5---0-0-0-0-0-0-0--|
||--5-5-5-5-5-5-5-5-5-5-5-5-5-5-5---0-0-0-0-0-0-0--|



Guitar 1:
||------------------|
||------------------|
||--7-7-7---6-6-6\--|
||--x-x-x---x-x-x\--|
||--5-5-5---5-5-5\--|
||------------------|


Guitar 2:
||------------------|
||------------------|
||------------------|
||--0-0-0---7-7-7\--|
||--0-0-0---7-7-7\--|
||--0-0-0---7-7-7\--|



Interlude
Guitar 1:
||----------------------------------------------------------------------|
||----------------------------------------------------------------------|
||----------------------------------------------------------------------|
||----------------------------------------------------------------------|
||------------------------------------55555555555555555555555555555555--|
||--9999999999999999-7777777777777777-----------------------------------|
    ................ ................ ................................


||-------------------------------------------------------|
||-------------------------------------------------------|
||-------------------------------------------------------|
||-------------------------------------------------------|
||----------------------------66666666-5555555555555555--|
||--9999999999999999-77777777----------------------------|
    ................ ........ ........ ................


Guitar 1/2:
||-------|
||-------|
||--6b~--|
||--7b~--|
||--5b~--|
||-------|



Chorus
Guitar 1/2:
||---------------------------------------|
||---------------------------------------|
||---------------------------------------|
||--55555555-77777777-99999999-00000000--| x2
||--55555555-77777777-99999999-00000000--|
||--55555555-77777777-99999999-00000000--|



Guitar 1:
||---------------------------------------------------|
||---------------------------------------------------|
||-------------------------------11-11/14-14\9-9-11--|
||--9-9-9-9--7-7-7-7--0-0-0-0-0--x--x-/x--x-\x-x-x---|
||--9-9-9-9--7-7-7-7--0-0-0-0-0--9--9-/12-12\7-7-9---|
||--9-9-9-9--7-7-7-7--0-0-0-0-0----------------------|


Guitar 2:
||-------------------------------------|
||-------------------------------------|
||-------------------------------------|
||--9-9-9-9--7-7-7-7--0-0-0-0-0-0-0-0--|
||--9-9-9-9--7-7-7-7--0-0-0-0-0-0-0-0--|
||--9-9-9-9--7-7-7-7--0-0-0-0-0-0-0-0--|



Guitar 1/2:
||-------------------------------------|---------------|
||-------------------------------------|---------------|
||-------------------------------------|---------------|
||--9-9-9-9--7-7-7-7--0-0-0-0-0-0-0-0--|--55555555-7~--|
||--9-9-9-9--7-7-7-7--0-0-0-0-0-0-0-0--|--55555555-7~--|
||--9-9-9-9--7-7-7-7--0-0-0-0-0-0-0-0--|--55555555-7~--|



Outro
Guitar 1:
||--------------------------------------------------------|
||--------------------------------------------------------|
||--------------------------------------------------------|
||--1212--12----------1212--12----------1212--12----------|
||--9-9---9-----------9-9---9-----------9-9---9-----------|
||--9-9---9-----------9-9---9-----------9-9---9-----------|


Guitar 2:
||--------------------------------------------------------|
||--------------------------------------------------------|
||------------7--7-7------------6--6-6------------7--7-7--|
||------------x--x-x------------x--x-x------------x--x-x--|
||------------5--5-5------------4--4-4------------5--5-5--|
||--------------------------------------------------------|


Guitar 1:
||------------------------|
||------------------------|
||--------7-7-7---6-6-6\--|
||--xxxx--x-x-x---x-x-x\--|
||--xxxx--5-5-5---5-5-5\--|
||--xxxx------------------|


Guitar 2:
||------------------------|
||------------------------|
||------------------------|
||--xxxx--0-0-0---7-7-7\--|
||--xxxx--0-0-0---7-7-7\--|
||--xxxx--0-0-0---7-7-7\--|




Tablature Legend
----------------
 h   - hammer-on
 p   - pull-off
 b   - bend
 r   - release bend
 *   - pinch harmonic
 '   - natural harmonic
 x   - mute note
 .   - palm mute
 /   - slide down
 \   - slide up
Добавлено: 24.10.2013
Другие материалы по этой песне:
  • Аккорды и текст

Страница создана 24.10.2013
http://primanota.ru/there-for-tomorrow/18-chords.htm
Привет, Гость.
Предлагаем пройти революционный курс по гитаре.
Подарок от PrimaNota.Ru, забирай!