PrimaNota.ru - самый крупный в мире бесплатный архив песенных текстов, аккордов, табулатур и нот


Therapy - Suing God - аккорды и текст, таба, видео

Регистрация Запомнить меня
Войти через:  Facebook Google Twitter Vk Yandex Mail.ru

Therapy - Suing God - аккорды и текст, таба, видео

Печатать
Просмотров: 92
Suing God
Therapy
		   e: Sat, 14 Mar 1998 16:35:25 -0000

NOTE : Open this in Windows Write for best results!!!

This is transcribed from the b-side to the Cd single Church of Noise and
represents my interpretation only. This is strictly for educational purposes
and all copyright remains with Therapy?

-----Suing God------

^=bend
x=palm muting
/=slide

Riff 1

--7-------------------------------------------------------------
----7-----------------------------------------------------------
-------9---8--8--8--8-------------------------------------------
-----------6--6--6--6-------------------------------------------
----------------------------------------------------------------
----------------------------------------------------------------



Riff 2

A5  G#5  A5  G#5  A5 G#5  A5  G#5

( played on 5th and 6th strings )

A5  E5  F#5

( played on 4th and 5th strings )

then more guitars come in playing

A5 G#5 A5 G#5 A5 G#5 A5 G#5 A5 F#5 A5 F#5 A5 G#5 A5 G#5

This forms the guitar part for the verse


I'm suing God......		for spiritual harassment and the cause
I'm suing God......		my buisness has been working out a loss

2nd verse

I'm suing God......		for breach of peace and advertising laws
I'm suing God......		(????)

( well they'll all get struck by lightning with lyrics like that! )

Chorus Riff ( C#5 )

----------------------------------------------------------------
----------------------------------------------------------------
--6-6-6-6---6-6-6----6-6-6-6---6-6-6----------------------------
--6-6-6-6---6-6-6----6-6-6-6---6-6-6----------------------------
--4-4-4-4---4-4-4----4-4-4-4---4-4-4----------------------------
----------------------------------------------------------------

E5		     B5		F#5  ( where you played them before )

What if know one meets me on the other side.....

C#

E5			B5		F#5

Say good bye to time share paradise....

C#

E5			B5		F#5

What if know one meets me on the other side...

C#

E5			B5

What if know one meets me....


( Therapy? Suing God- transcribed by Ryan Shirlow -
  ryan at finman dot co dot uk )     
Добавлено: 11.07.2013
Другие материалы по этой песне:

Страница создана 18.04.2012
http://primanota.ru/therapy/suing-god-chords.htm
Привет, Гость.
Предлагаем пройти революционный курс по гитаре.
Подарок от PrimaNota.Ru, забирай!