PrimaNota.ru - самый крупный в мире бесплатный архив песенных текстов, аккордов, табулатур и нот


Therapy - Hellbelly - аккорды и текст, видео

Регистрация Запомнить меня
Войти через:  Facebook Google Twitter Vk Yandex Mail.ru

Therapy - Hellbelly - аккорды и текст, видео

Печатать
Просмотров: 94
Авторы музыки: Andy Cairns

Hellbelly
Therapy
Intro

Играется на эл. гитаре стандартной EBGDAE настройке:

   B      C  G      C  B      C G               
E|----------------|----------------|----------------|
B|----------------|----------------|-------hp-------|
G|-4-444--5-------|-5--4-444--5----|----5-454-0-----|
D|-4-444--5--5-555|-5--4-444--5-5--|--5-------------| x6 
A|-2-222--3--5-555|-3--2-222--3-5--|5---------------|
E|-----------3-333|-------------3--|----------------|
     ...       ...       ...      


   B      C  G      C  B      C G               
E|----------------|----------------|----------------|
B|----------------|----------------|-------hp-------|
G|-4-444--5-------|-5--4-444--5----|----5-454-0-----|
D|-4-444--5--5-555|-5--4-444--5-5--|--5-------------| x2 
A|-2-222--3--5-555|-3--2-222--3-5--|5---------------|
E|-----------3-333|-------------3--|----------------|
     ...       ...       ...      
  I'm not afraid to die I'm just scared of going to hell 
  Your car salesman smile says it all you just wanna be



Chorus 

   E        D  A  G   E        D   A   B
 e-0-000-00---------|-0-000-00-------------|
 b-0-000-00---------|-0-000-00-------------|
 g-9-999-99-7-7-7---|-9-999-99-7-7---------| x4
 d-9-999-99-7-7-7---|-9-999-99-7-7-7-------|
 a-7-777-77-5-5-7-5-|-7-777-77-5-5-7-----5-|
 e--------------5-3-|--------------5-5-7---|
  Jesus without the suffering
  Jesus without the suffering
  Jesus without the suffering
  Jesus without the suffering


Главный рифф  (Fire  Fire  Fire  Hell ...):

   D        G   D        A
 e--------------------------|
 b--------------------------|
 g-7--7--7--12--7--7--7-----|
 d-7--7--7--12--7--7--7--7--| X2
 a-5--5--5--10--5--5--5--7--|
 e-----------------------5--|

Solo:

 e--------------12--12--------------------------------------|
 b------10-12-10--10--10-12/--10-12-10-/-13-13-13-12-12-12-|
 g-2-/-9--9--9----------------9--9--9-9-/-12-12-12-11-11-11-|
 d----------------------------------------------------------|
 a----------------------------------------------------------|
 e----------------------------------------------------------|
                     Bend /

Last Riff:

   C                             G
 e---------------------------------|
 b---------------------------------|
 g-5-5-5-5-5-5-5-5-5-5-5-5-5-5-x---|
 d-5-5-5-5-5-5-5-5-5-5-5-5-5-5-x-5-|
 a-3-3-3-3-3-3-3-3-3-3-3-3-3-3-x-5-|
 e-------------------------------3-|
Добавлено: 04.01.2014
Другие материалы по этой песне:

Страница создана 26.02.2012
http://primanota.ru/therapy/hellbelly-chords.htm
Привет, Гость.
Предлагаем пройти революционный курс по гитаре.
Подарок от PrimaNota.Ru, забирай!