PrimaNota.ru - самый крупный в мире бесплатный архив песенных текстов, аккордов, табулатур и нот


Theory Of A Deadman - Little Smirk - текст песни, таба, видео

Регистрация Запомнить меня
Войти через:  Facebook Google Twitter Vk Yandex Mail.ru

Theory Of A Deadman - Little Smirk - текст песни, таба, видео

Печатать
Просмотров: 407
Уроки эстрадного вокала в Санкт-Петербурге
Drop C tunning



Intro (Play it twice)

|------------------------------------------|
|------------------------------------------|
|------------------------------------------|
|-X-0-----------2-2-2----4-2-2-2--4-5-5-5--|
|-X-0-----------0-0-3b-0-5-0-0-3b-5-6-6-6--|
|-X-0--------------------------------------|

|-------------------------|
|-------------------------|
|-------------------------|
|-2-2-2----4-2-2-2--5-5-5-|
|-0-0-3b-0-5-0-0-3b-5-5-5-|
|-------------------5-5-5-|

Verse (Play once)

       P.M.---------------------
|-------------------------------------------------|
|-----------------------------------------------3-|
|-2-2-------------------------------------------2-|
|-2-2-22222222222222222222222222-2-2-2-5--5-5-5-0-|
|-0-0-00000000000000000000000000-0-0-0-5--5-5-5-0-|
|--------------------------------------5—-5-5-5-0-|

|-------------------------|
|-------------------------|
|-------------------------|
|-2-2-2----4-2-2-2--5-5-5-|
|-0-0-3b-0-5-0-0-3b-5-5-5-|
|-------------------5-5-5-|

       P.M.---------------------
|-------------------------------------------------|
|-----------------------------------------------3-|
|-2-2-------------------------------------------2-|
|-2-2-22222222222222222222222222-2-2-2-5--5-5-5-0-|
|-0-0-00000000000000000000000000-0-0-0-5--5-5-5-0-|
|--------------------------------------5—-5-5-5-0-|

|-------------------------|
|-------------------------|
|-------------------------|
|-2-2-2----4-2-2-2--5-5-5-|
|-0-0-3b-0-5-0-0-3b-5-5-5-|
|-------------------5-5-5-|
 
Pre Chorus (play once)
|-----------------------------------|
|-----------------------------------|
|-------------------7777777777777---|
|-22222222222222-4-55555555555555-2-|
|-22222222222222-4-55555555555555-2-|
|-22222222222222-4-55555555555555-0-|

Chorus
     P.M.--------|   P.M.-------|     P.M.-------|
|----------------------------------------------------------------------|
|----------------------------------3--333333333333---------------------|
|-2--222222222222-5--555555555555--2--222222222222---------------------|
|-2--222222222222-5—-555555555555--0--000000000000-3333333-55555-8-8-7-|
|-0--000000000000-3--333333333333--0--000000000000-3333333-55555-6-6-5-|
|--------------------------------------------------3333333-55555-------|

I'm not sure about the bridge but that is all the rhythm parts so it will at least 
be a start for you.
Добавлено: 24.10.2013
Другие материалы по этой песне:
  • Аккорды и текст

Страница создана 27.09.2013
http://primanota.ru/theory-of-a-deadman/little-smirk-chords.htm
Привет, Гость.
Предлагаем пройти революционный курс по гитаре.
Подарок от PrimaNota.Ru, забирай!