PrimaNota.ru - самый крупный в мире бесплатный архив песенных текстов, аккордов, табулатур и нот


Theme Park - Jamaica - таба, видео

Регистрация Запомнить меня
Войти через:  Facebook Google Twitter Vk Yandex Mail.ru

Theme Park - Jamaica - таба, видео

Печатать
Просмотров: 104
http://www.themeparkband.com/

Intro 
Guitar 1
    (x5)
e|-----------|---------|
B|-----------|---------|
G|-9~-9-8--8-|-8~--8-8-|
D|-9~-9-9--9-|-9~--9-9-|
A|-7~-7-6--6-|-9~--9-9-|
E|-----------|-7~--7-7-|

Guitar 2
     (x5)
e|-----------|-----------|
B|-9---9-----|---9-7-9-7-|
G|---9---8---|-----------|
D|-----------|-----------|
A|-----------|-----------|
E|-----------|-----------|

Guitar 3 (x2)
e|-----------------------------------------------------------|
B|-----------------------------------------------------------|
G|-9999-99-99-9---9999-99-99-9---9999-99-99-9---8888-88-88-8-|
D|-9999-99-99-9---9999-99-99-9---9999-99-99-9---9999-99-99-9-|
A|-----------------------------------------------------------|
E|-----------------------------------------------------------|


Chorus
Guitar 1
e|---------------------|
B|---------------------|
G|-6~---6~---1~---8~---|
D|-7~---7~---2~---9~---|
A|-7~---7~---2~---9~---|
E|-5~---5~---0~---7~---|

Guitar 2
e|----------------------------|
B|-12---12h14---14p12---12----|
G|-------------------------13-|
D|----------------------------|
A|----------------------------|
E|----------------------------|

Guitar 3
e|------------------------------------|
B|------------------------------------|
G|-9-9-999--9-9-999--9-9-999--8-8-888-|
D|-9-9-999--9-9-999--9-9-999--9-9-999-|
A|------------------------------------|
E|------------------------------------|

Guitar 4 (comes in every 2nd half of the chorus) (x2)
e|-------1212-1414-1616------1212-1414-1616-|
B|-1414-----------------1414----------------|
G|------------------------------------------|
D|------------------------------------------|
A|------------------------------------------|
E|------------------------------------------|

e|------1212-1414-1616-171716161414------|
B|-1414-----------------------------1414-|
G|---------------------------------------|
D|---------------------------------------|
A|---------------------------------------|
E|---------------------------------------|

Verse (each Part x2)
Guitar 1
e|----------------------------------------|
B|----------------------------------------|
G|----------------------------------------|
D|----------------------------------------|
A|-77-77777--77-77777--77-77777--66-66666-|
E|----------------------------------------|

Guitar 2
e|----------------------------------------|
B|-12~-12~---10~--10~--12~-12~--10--10-12-|
G|-9~--9~----9~---9~---9~--9~---9---9--9--|
D|----------------------------------------|
A|----------------------------------------|
E|----------------------------------------|

Guitar 3
e|----------------------------------------|
B|----------------------------------------|
G|-99-99999--99-99999--99-99999--88-88888-|
D|-99-99999--99-99999--99-99999--99-99999-|
A|----------------------------------------|
E|----------------------------------------|

Repeat Chorus

Bridge
Guitar 1 (x4)
e|------------------------------------|
B|------------------------------------|
G|------------------------------------|
D|------------------------------------|
A|-7-7-777--7-7-777--7-7-777--6-6-666-|
E|------------------------------------|

Guitar 2 (starts playing this at around 2.03)
e|------------------------------------------------------|
B|----12h14---12h14---12h14---14---12h14---1214---12h14-|
G|------------------------------------------------------|
D|------------------------------------------------------|
A|------------------------------------------------------|
E|------------------------------------------------------|

Guitar 3 (x4)
e|------------------------------------|
B|------------------------------------|
G|-9-9-999--9-9-999--9-9-999--8-8-888-|
D|-9-9-999--9-9-999--9-9-999--9-9-999-|
A|------------------------------------|
E|------------------------------------|

Guitar 4 (from 2.18)
    (x32)
e|-1614------|
B|------1714-|
G|-----------|
D|-----------|
A|-----------|
E|-----------|

Repeat Chorus 

Outro
Guitar 1
e|----------------------------------------------
B|----------------------------------------------
G|---6---6---6---6----6-----6---6---6---6----6--
D|----------------------------------------------
A|----------------------------------------------
E|-5---5---5---5----5-----5---5---5---5----5----

e|----------------------------------------------|
B|----------------------------------------------|
G|---1---1---1---1----1-----8---8---8---8----8--|
D|----------------------------------------------|
A|----------------------------------------------|
E|-0---0---0---0----0-----7---7---7---7----7----|

Guitar 2
e|--------------------------------------------11-11-1111-11-|
B|-14-14-1414-14---14-14-1414-14---9-9-99-9-----------------|
G|----------------------------------------------------------|
D|----------------------------------------------------------|
A|----------------------------------------------------------|
E|----------------------------------------------------------|

Guitar 3 (enters at 3.31)
e|------------------------------------|
B|------------------------------------|
G|-9-9-999--9-9-999--9-9-999--8-8-888-|
D|-9-9-999--9-9-999--9-9-999--9-9-999-|
A|------------------------------------|
E|------------------------------------

Guitar 4 (enters at 3.31)
e|------------------------------------|
B|------------------------------------|
G|------------------------------------|
D|------------------------------------|
A|-7-7-777--7-7-777--7-7-777--6-6-666-|
E|------------------------------------|

|

In the last few seconds a guitar plays this riff
e|-------------------|
B|-------------------|
G|---------1-4-1-----|
D|-----2-4-------4-2-|
A|-2-4---------------|
E|-------------------|
Добавлено: 24.08.2013
Другие материалы по этой песне:
  • Аккорды и текст

Страница создана 24.08.2013
http://primanota.ru/theme-park/jamaica-chords.htm
Привет, Гость.
Предлагаем пройти революционный курс по гитаре.
Подарок от PrimaNota.Ru, забирай!