PrimaNota.ru - самый крупный в мире бесплатный архив песенных текстов, аккордов, табулатур и нот


Them Crooked Vultures - Nobody Loves Me And Neither Do I - таба, видео

Регистрация Запомнить меня
Войти через:  Facebook Google Twitter Vk Yandex Mail.ru

Them Crooked Vultures - Nobody Loves Me And Neither Do I - таба, видео

Печатать
Просмотров: 78
Nobody Loves Me And Neither Do I

Tuning: Drop D

's' before a note means slide up or down the neck into the note.

(0:11) Intro/Verse: (There are lots of variations, I have only tabbed a few of them)

e|------------------------------------------------------------|
B|---------5--------------------------------------------------|
G|---------5---2-2-1h2p1p0------------------------------------|
D|-5-5-6-7-----------------0----------------------------------|
A|-5-5-6-7-----------------0----------------------------------|
C|------------------------------------------------------------|

e|-------------------------0----------------------------------|
B|---------5---------------4b5--------------------------------|
G|---------5---2-2-1h2p1p0-----2------------------------------|
D|-5-5-6-7----------------------------------------------------|
A|-5-5-6-7----------------------------------------------------|
C|------------------------------------------------------------|

e|-------------------------0----------------------------------|
B|---------5---------------4b5r4p2-4--------------------------|
G|---------5---2-2-1h2p1p0-----------2------------------------|
D|-5-5-6-7----------------------------------------------------|
A|-5-5-6-7----------------------------------------------------|
C|------------------------------------------------------------|

e|--------------------------5-4b5-----------------------------|
B|---------5--------------------------------------------------|
G|---------5---2-2-1h2p1p0------------------------------------|
D|-5-5-6-7----------------------------------------------------|
A|-5-5-6-7----------------------------------------------------|
C|------------------------------------------------------------|

(0:50) Chorus: (Again there are lots of variations with the lead lick after the power 
I have only tabbed some)

e|------------------------------------------------------------|
B|------------------------------------------------------------|
G|-7-7-7-7---s9-7------2-2-2-2---5p4p2p0----------------------|
D|-7-7-7-7--------10---2-2-2-2-----------2p0------------------|
A|-5-5-5-5-------------0-0-0-0--------------------------------|
D|-0-0-0-0----------------------------------------------------|

e|-------------------------------------------4b5--------------|
B|------------------------------------------------------------|
G|-7-7-7-7---s9-7------2-2-2-2---5p4p2 5p4p2------------------|
D|-7-7-7-7--------10---2-2-2-2--------------------------------|
A|-5-5-5-5-------------0-0-0-0--------------------------------|
D|-0-0-0-0----------------------------------------------------|

e|---------------------------------------s17-16b17------------|
B|------------------------------------------------------------|
G|-7-7-7-7---s9-7------2-2-2-2---5p4p2p0----------------------|
D|-7-7-7-7--------10---2-2-2-2--------------------------------|
A|-5-5-5-5-------------0-0-0-0--------------------------------|
D|-0-0-0-0----------------------------------------------------|

e|------------------------------------------------------------|
B|------------------------------------------------------------|
G|-7-7-7-7---s9-7------2-2-2-2---5p4p2p0----------------------|
D|-7-7-7-7--------10---2-2-2-2-----------2p0--3-3-3-3-2-2-2-2-|
A|-5-5-5-5-------------0-0-0-0----------------3-3-3-3-2-2-2-2-|
D|--------------------------------------------3-3-3-3-2-2-2-2-|

(1:11) Repeat verse with variations until:

(1:51) Play Chorus until:

(2:11) Bridge: (Guitar comes in after Bass which plays the same riff an octave or two 
Repeat until Josh goes “ooooph”

e|------------------------------------------------------------|
B|------------------------------------------------------------|
G|------------------------------------------------------------|
D|------------------------------------------------------------|
A|-12p10-12p10-12p10-3p0-3p0—11p10-11p10-11p10-6p5-6p5--------|
D|------------------------------------------------------------|

(2:44) Huge Riff: (There are loads of variations and I have not tabbed them all)

e|------------------------------------------------------------|
B|------------------------------------------------------------|
G|------------------------------------------------------------|
D|-12s3-0-12-13-14--12s3-0--12-14-10--------------------------|
A|-12s3-0-10-11-12--12s3-0--10-11-12--------------------------|
D|-12s3-0-----------12s3-0------------------------------------|

e|------------------------------------------------------------|
B|------------------------------------------------------------|
G|------------------------------------------------------------|
D|-12s3-0-12-13-14--12s3-0--12-14-10--------------------------|
A|-12s3-0-10-11-12--12s3-0--10-11-12--------------------------|
D|-12s3-0-----------12s3-0------------------------------------|

(4:03)

e|------------------------------------------------------------|
B|------------------------------------------------------------|
G|------------------------------------------------------------|
D|----------10-11-12----------12-13-14------------------------|
A|-10-11-12-10-11-12-12-13-14-12-13-14------------------------|
D|-10-11-12----------12-13-14---------------------------------|

(4:04) Again there are lots of variations

e|------------------------------------------------------------|
B|------------------------------------------------------------|
G|------------------------------------------------------------|
D|-12s3-0-12h14-10--12s3-0--12h14-10--------------------------|
A|-12s3-0-----------12s3-0------------------------------------|
D|-12s3-0-----------12s3-0------------------------------------|

e|------------------------------------------------------------|
B|------------------------------------------------------------|
G|------------------------------------------------------------|
D|-12s3-0-12h14-10--12s3-0--12h14-12h14-----------------------|
A|-12s3-0-----------12s3-0------------------------------------|
D|-12s3-0-----------12s3-0------------------------------------|

(4:36)

e|------------------------------------------------------------|
B|------------------------------------------------------------|
G|------------------------------------------------------------|
D|----------10-11-12----------10-11-12-----------10-11-12-----|
A|-10-11-12-10-11-12-10-11-12-10-11-12-10-11-12--10-11-12-----|
D|-10-11-12----------10-11-12----------10-11-12---------------|

e|------------------------------------------------------------|
B|------------------------------------------------------------|
G|------------------------------------------------------------|
D|------------------------------------------------------------|
A|-10-11-12-10-11-12-10-12------------------------------------|
D|-10-11-12-10-11-12-10-12------------------------------------|

e|------------------------------------------------------------|
B|------------------------------------------------------------|
G|------------------------------------------------------------|
D|----------10-11-12----------10-11-12-----------10-11-12-----|
A|-10-11-12-10-11-12-10-11-12-10-11-12-10-11-12--10-11-12-----|
D|-10-11-12----------10-11-12----------10-11-12---------------|

e|------------------------------------------------------------|
e|------------------------------------------------------------|
B|------------------------------------------------------------|
G|------------------------------------------------------------|
D|------------------------------------------------------------|
A|-10-11-12-10-11-12-10-12------------------------------------|
D|-10-11-12-10-11-12-10-12------------------------------------|

(4:48) Repeat twice:

e|------------------------------------------------------------|
B|------------------------------------------------------------|
G|------------------------------------------------------------|
D|-12s3-0-12h14-10--12s3-0--12h14-10--------------------------|
A|-12s3-0-----------12s3-0------------------------------------|
D|-12s3-0-----------12s3-0------------------------------------|

e|------------------------------------------------------------|
B|------------------------------------------------------------|
G|------------------------------------------------------------|
D|-12s3-0-12h14-10--12s3-0--12h14-12h14-----------------------|
A|-12s3-0-----------12s3-0------------------------------------|
D|-12s3-0-----------12s3-0------------------------------------|

(4:58) Outro: (Fast sliding required)

e|------------------------------------------------------------|
B|------------------------------------------------------------|
G|------------------------------------------------------------|
D|-14s12-14s12-14s12-14s12-5s2-5s2-5s2-5s2--------------------|
A|-12s10-12s10-12s10-12s10-3s0-3s0-3s0-3s0--------------------|
D|------------------------------------------------------------|

e|------------------------------------------------------------|
B|------------------------------------------------------------|
G|------------------------------------------------------------|
D|-13s12-13s12-13s12-13s12-8s7-8s7-8s7-8s7--------------------|
A|-11s10-11s10-11s10-11s10—6s5-6s5-6s5-6s5--------------------|
D|------------------------------------------------------------|

e|------------------------------------------------------------|
B|------------------------------------------------------------|
G|------------------------------------------------------------|
D|-14s12-14s12-14s12-14s12-5s2-5s2-5s2-5s2--------------------|
A|-12s10-12s10-12s10-12s10-3s0-3s0-3s0-3s0--------------------|
D|------------------------------------------------------------|

e|------------------------------------------------------------|
B|------------------------------------------------------------|
G|------------------------------------------------------------|
D|-13s12-13s12-13s12-13s12--8s0-------------------------------|
A|-11s10-11s10-11s10-11s10--6s0-------------------------------|
D|--------------------------0---------------------------------|

Gotta love that Ending!
Добавлено: 23.07.2013
Другие материалы по этой песне:
  • Аккорды и текст

Страница создана 23.07.2013
http://primanota.ru/them-crooked-vultures/nobody-loves-me-and-neither-do-i-chords.htm
Привет, Гость.
Предлагаем пройти революционный курс по гитаре.
Подарок от PrimaNota.Ru, забирай!