PrimaNota.ru - самый крупный в мире бесплатный архив песенных текстов, аккордов, табулатур и нот


Them Crooked Vultures - No One Loves Me & Neither Do I - аккорды и текст, таба, бас-таба, драм-таба, видео

Регистрация Запомнить меня
Войти через:  Facebook Google Twitter Vk Yandex Mail.ru

Them Crooked Vultures - No One Loves Me & Neither Do I - аккорды и текст, таба, бас-таба, драм-таба, видео

Печатать
Просмотров: 280
Уроки эстрадного вокала в Санкт-Петербурге
Авторы музыки: Them Crooked Vultures

No One Loves Me & Neither Do I
Them Crooked Vultures
Them Crooked Vultures - No One Loves Me & Neither Do I

Tabbed By: Mark DiFranco

Tuning - A A D G B e (Dropped A)


Intro/Main Riff:
e|------------------------5-------------------------------------------|
B|------------------------5-------------------------------------------|
G|------------------------5-------------------------------------------|
D|--//15---------5-5-6-7-----7-7-6h7p6-5--5---------------------------|
A|------15\\-----5-5-6-7------------------5---------------------------|
A|--------------------------------------------------------------------|


Various Riffs:
e|------------5----------------------------------|
B|------------5----------------------------------|
G|------------5-------------------7b8--7b8-------|
D|---5-5-6-7---------7-7-6h7p6-5-----------------|
A|---5-5-6-7-------------------------------------|
A|-----------------------------------------------|

e|-----------------------------------------------|
B|-----------------------------------------------|
G|----------7b8-7-5-7-5~-------------------------|
D|---5-5-6-7-------------7-7-6h7p6-5-------------|
A|---5-5-6-7-------------------------------------|
A|-----------------------------------0-3//11\\0--|

e|-----------------------------------------------|
B|-----------------------------------------------|
G|----------7b8-7-5-7-5--------------------------|
D|---5-5-6-7------------7---7-7-6h7p6-5--5--5----|
A|---5-5-6-7-----------------------------5--5----|
A|-----------------------------------------------|

e|------------------5h8b9------------------------|
B|-----------------------------------------------|
G|---------------5h7-----------------------------|
D|---5-5-6-7--5h7---------7-7-6h7p6-5--5---------|
A|---5-5-6-7---------------------------5---------|
A|-----------------------------------------------|


Chorus:					      [second time]
e|-------------------------------------------|------------------------|
B|-------------------------------------------|------------------------|
G|---7-7-7-7---7/9-7-5------------5p4--------|--2-2-2-2--x--8-8-8-8~--|
D|---7-7-7-7------------7-7-7-7------7p5-----|--3-3-3-3--x--9-9-9-9~--|
A|----------------------7-7-7-7---------7p5--|--3-3-3-3--x--9-9-9-9~--|
A|-------------------------------------------|------------------------|


First Riff after Chorus:
e|-----------------------------------------------|
B|-----------------------------------------------|
G|------------5-------------------7b8------------|
D|---5-5-6-7---------7-7-6h7p6-5-----------------|
A|-----------------------------------------------|
A|-----------------------------------------------|


Transition:
e|--------------------------------------------------------------------|
B|--------------------------------------------------------------------|
G|--------------------------------------------------------------------|
D|--------------------------------------------------------------------|
A|--------------------------------------------------------------------|
A|---12-10-12-10-12-10---3-0-3-0-----11-10-11-10-11-10---7-5-7-5------|


Huah:
e|--------------------------------------------------------------------|
B|--------------------------------------------------------------------|
G|--------------------------------------------------------------------|
D|--------------------------------------------------------------------|
A|----------10-11-12--------10-11-12--------10-11-12--------10-11-12--|
A|---12//-0----------12//-0----------12//-0----------12//-0-----------|


Mid-Riff:
e|--------------------------------------------------------------------|
B|--------------------------------------------------------------------|
G|--------------------------------------------------------------------|
D|--------------------------------------------------------------------|
A|--------6h7h8------8h9h10-------------------------------------------|
A|---6h7h8-----8h9h10------12//-0-------------------------------------|


Odd Rhythm Riff:
e|--------------------------------------------------------------------|
B|--------------------------------------------------------------------|
G|--------------------------------------------------------------------|
D|--------------------------------------------------------------------|
A|-10-11-12--------10-11-12--------10-11-12--10-11-12--------10-11-12-|
A|----------12//-0----------12//-0--------------------12//-0----------|

e|--------------------------------------------------------------------|
B|--------------------------------------------------------------------|
G|--------------------------------------------------------------------|
D|--------------------------------------------------------------------|
A|--------10-11-12----------------10-11-12--------10-11-12------------|
A|-12//-0----------12//-0--12//-0----------12//-0----------12//-0-----|


Second Guitar Riff:
e|--------------------------------------------------------------------|
B|--------------------------------------------------------------------|
G|--------------------------------------------------------------------|
D|----------12h13-10--------12h13-10--------12h13-10--------12h13-10--|
A|--------------------------------------------------------------------|
A|---12//-0----------12//-0----------12//-0----------12//-0-----------|


Ending Riff 1:
e|--------------------------------------------------------------------|
B|--------------------------------------------------------------------|
G|--------------------------------------------------------------------|
D|--------------------------------------------------------------------|
A|---3h4h5--3h4h5--3h4h5--3h4h5--3h4h5--3h4h5--3h4h5-3h4h5-3h5--------|
A|---3h4h5---------3h4h5---------3h4h5---------3h4h5-------3h5--------|

e|--------------------------------------------------------------------|
B|--------------------------------------------------------------------|
G|--------------------------------------------------------------------|
D|--------------------------------------------------------------------|
A|---5h6h7--5h6h7--5h6h7--5h6h7--5h6h7--5h6h7--5h6h7-5h6h7-5h7--------|
A|---5h6h7---------5h6h7---------5h6h7---------5h6h7-------5h7--------|


Ending Riff 2:
e|--------------------------------------------------------------------|
B|--------------------------------------------------------------------|
G|--------------------------------------------------------------------|
D|--------------------------------------------------------------------|
A|--------------------------------------------------------------------|
A|---12-10-12-10-12-10-12-10-3-0-3-0-3-0-3-0-11-10-11-10-11-10-11-10--|

e|--------------------------------------------------------------------|
B|--------------------------------------------------------------------|
G|--------------------------------------------------------------------|
D|--------------------------------------------------------------------|
A|--------------------------------------------------------------------|
A|---5-7-5-7-5-7-5-7-12-10-12-10-12-10-12-10-3-0-3-0-3-0-3-0-11-10-11-|

e|--------------------------------------------------------------------|
B|--------------------------------------------------------------------|
G|------------------7\------------------------------------------------|
D|------------------7\------------------------------------------------|
A|------------------7\------------------------------------------------|
A|---10-11-10-11-10-7\------------------------------------------------|
Добавлено: 21.08.2013
Другие материалы по этой песне:

Страница создана 11.03.2012
http://primanota.ru/them-crooked-vultures/no-one-loves-me-and-neither-do-i-chords.htm
Привет, Гость.
Предлагаем пройти революционный курс по гитаре.
Подарок от PrimaNota.Ru, забирай!