PrimaNota.ru - самый крупный в мире бесплатный архив песенных текстов, аккордов, табулатур и нот


Them Crooked Vultures - Mind Eraser No Chaser Outro - аккорды и текст, видео

Регистрация Запомнить меня
Войти через:  Facebook Google Twitter Vk Yandex Mail.ru

Them Crooked Vultures - Mind Eraser No Chaser Outro - аккорды и текст, видео

Печатать
Просмотров: 73
Mind Eraser No Chaser Outro
Them Crooked Vultures
Standard Tuning EADGBe 



Just the synth-horn outro here: 


e|-------5-5-------5---------------------------------------------|
B|-5-6-8-----8-6-5----8-8-6-5------5-6-6-5----5----------------5-|
G|----------------------------7--7----------7---7-5-4----4-5-7---|
D|-----------------------------------------------------7---------|
A|---------------------------------------------------------------|
D|---------------------------------------------------------------|

e|-------5-5-------5---------------------------------------------|-------5--------|
B|-5-6-8-----8-6-5----8-8-6-5------5-6-6-5----5----------------5-|-5-6-8----------|
G|----------------------------7--7----------7---7-5-4----4-5-7---|----------------|
D|-----------------------------------------------------7---------|----------------|
A|---------------------------------------------------------------|----------------|
D|---------------------------------------------------------------|------------5-5-|





(end)
Добавлено: 13.06.2016
Другие материалы по этой песне:
  • Аккорды и текст

Страница создана 13.06.2016
http://primanota.ru/them-crooked-vultures/mind-eraser-no-chaser-outro-chords.htm
Привет, Гость.
Предлагаем пройти революционный курс по гитаре.
Подарок от PrimaNota.Ru, забирай!