PrimaNota.ru - самый крупный в мире бесплатный архив песенных текстов, аккордов, табулатур и нот


Them Crooked Vultures - Interludes With Ludes - таба, видео

Регистрация Запомнить меня
Войти через:  Facebook Google Twitter Vk Yandex Mail.ru

Them Crooked Vultures - Interludes With Ludes - таба, видео

Печатать
Просмотров: 76
Them Crooked Vultures - Interludes with Ludes

Tuning: E Standard
Tabbed out what a rhythm guitar were to play. You can probably get a good keyboard ish sound out of a 
rotary pedal or speakers on top of maybe a light octave effect.

Verse (keyboard arranged for guitar):
E|-------------------------|
B|-------------------------|
G|------9--9---11-12-11--9-|
D|------x--x----x--x--x--x-| I would recommend holding a Cmaj barre chord
A|-----10-10---10-10-10-10-|
E|--8----------------------|

Chorus:
E|--------|-------------------------------|
B|--------|-------------------------------|
G|-7--7-7-|-7-7-7-7-|-10-10---12-12-12-12-|
D|-8--8-8-|-8-8-8-8-|-10-10---12-12-12-12-|
A|-8--8-8-|-8-8-8-8-|--8--8---10-10-10-10-|
E|-6--6-6-|-6-6-6-6-|--8--8---10-10-10-10-|

The other tab has a fairly good solo so use that tab for that part.

Cheers.
Добавлено: 27.10.2015
Вам также может быть интересно:
Другие материалы по этой песне:
  • Аккорды и текст

Страница создана 27.10.2015
http://primanota.ru/them-crooked-vultures/interludes-with-ludes-chords.htm
Привет, Гость.
Предлагаем пройти революционный курс по гитаре.
Подарок от PrimaNota.Ru, забирай!