PrimaNota.ru - самый крупный в мире бесплатный архив песенных текстов, аккордов, табулатур и нот


Their Theyre There - Their Theyre Therapy - бас-таба, видео

Регистрация Запомнить меня
Войти через:  Facebook Google Twitter Vk Yandex Mail.ru

Their Theyre There - Their Theyre Therapy - бас-таба, видео

Печатать
Просмотров: 132
Уроки эстрадного вокала в Санкт-Петербурге
This is pretty long because of all the variations
Here's the video: https://www.youtube.com/watch?v=vxpZocdOX0U

Intro x2
F|----------------------------------------|
C|----------------------------------------|
G|-2-2-2-2-2-2-9-9-9-9-9-9--7-7/0\7-7-7h9-|
D|----------------------------------------|

F|-------------------------------------------------|
C|-------------------------------------------------|
G|-2-2-2-2-2-2-------------------------------------|
D|-------------2-2-2-2-2-2-4-4-4-4-4-4-0-0-0-0-0-0-|


F|--------------------------------------------------9--9-9--|
C|--------------------------------------------------9--9-9--|
G|-2-2-2-2-2-2-9-9-9-9-9-9-------------4-4-4-4-4-4--7--7-7--|
D|-------------------------5-5-5-5-5-5----------------------|


F|--9-2-6-2-|
C|--9-2-6-2-|
G|--7-0-4-0-|
D|----------|

Chorus-y Part x5
F|-------------------------------------------------------|
C|-------------------------------------------------------|
G|--7/0\7--7--------7----------7/0\7--7--------7/12--11--|
D|------------7--9-----5--4--------------7--9------------|

F|-------|
C|----9--|
G|----7--|
D|-------|

Hold That ^, then:

Scary Bridge Part x3

F|-------------|
C|-----4h6-----|
G|--0-------4--|
D|-------------|
Bridge Ending

F|---------------|
C|-----4h6----9--|
G|--0-------4/7--|
D|---------------|

F|-------------------------|
C|-------------------------|
G|--2----9------7--7--7h9--|
D|-------------------------|

Intro x1, then

F|--------------------------------------------------------------------------|
C|--------------------------------------------------------------------------|
G|--2--2--2--2--2--2--9--9--9--9--9--9--------------------6--6--6--6--6--6--|
D|--------------------------------------4--4--4--4--4--4--------------------|

x4
F|-------------------------------------------------|
C|-------------------------------------------------|
G|-2-2-2-2-2-2-9-9-9-9-9-9-------------4-4-4-4-4-4-|
D|-------------------------5-5-5-5-5-5-------------|

F|--------------|
C|--------------|
G|--7/0\7-------|
D|-----------0--|

F|-------------------------------------------|
C|-------------------------------------------|
G|--7/0\7---------------7/0\7----0--6h7h9----|
D|-----------0---2--4------------------------|

F|-----------------------------------------|
C|-----------------------------------------|
G|--7/0\7---------------7/0\7----0--9--11~-|
D|-----------0--2--4-----------------------|
Добавлено: 23.07.2015
Другие материалы по этой песне:
  • Аккорды и текст

Страница создана 23.07.2015
http://primanota.ru/their-theyre-there/their-theyre-therapy-chords.htm
Привет, Гость.
Предлагаем пройти революционный курс по гитаре.
Подарок от PrimaNota.Ru, забирай!