PrimaNota.ru - самый крупный в мире бесплатный архив песенных текстов, аккордов, табулатур и нот


Their Theyre There - End And End - бас-таба, видео

Регистрация Запомнить меня
Войти через:  Facebook Google Twitter Vk Yandex Mail.ru

Their Theyre There - End And End - бас-таба, видео

Печатать
Просмотров: 30
-------------------------------------------------------------------------------
                            End and End - Their/They're/There
-------------------------------------------------------------------------------
E-mail: joey2_96@yahoo.com

Tuning: DGCF

If you have trouble, watch this video:
https://www.youtube.com/watch?v=KTWqHgjVuX8

And if the tab is confusing, feel free to email me.

Intro 
F|-----------------------|
C|----15-----------------|
G|----13-----------------|
D|-----------------------|

This first chord gets repeated, buts speeds up every measure or two. Slide out the last time

Verse x2
F|---------------------------------------------------------------------------|
C|-----------------------------------------------5/7-8-7---------------------|
G|-----5-5-5-5--6-6-6-6-------/10--8--3--5---------------8-------------------|
D|--------------------------6-----------------3------------------------------|

F|-------------------------------5--7----------------------------------------|
C|------------------------5/7-8-------------------------5/7-8-7--------------|
G|-------/10--8--3--5---------------------/10--8--3--5----------8------------|
D|----6----------------3---------------6-------------------------------------|

F|---------------------------------------------------------------------------|
C|---------------------------------------------------------------------------|
G|---6-6-6-6-6-6-6-6-6-6-6-6-8-8-8-8-----------------------------------------|
D|---------------------------------------------------------------------------|

Verse Ending: x1
F|---------------------------------------------------------------------------|
C|---------------------------------------------------------------------------|
G|--6-6-6-6-6-6-6-6-3-3-3-3-5-5-5-5--6-6-6-6-6-6-6-6-6-6-6-6-8-8-8-8---------|
D|---------------------------------------------------------------------------|

F|---------------------------------------------------------------------------|
C|---------------------------------------------------------------------------|
G|---6-6-6-6-6-6-6-6-8-8-8-8-8-8-8-8-----------------------------------------|
D|---------------------------------------------------------------------------|


"Chorus" x2
F|--------------------------------------------------------------------------x3
C|---------------------------------------------------------------------------|
G|---1111111111111111-55555555-66666666--------------------------------------|
D|---------------------------------------------------------------------------|

F|---------------------------------------------------------------------------|
C|---------------------------------------------------------------------------|
G|---10-1010-8-88--5-55-6666-------------------------------------------------|
D|---------------------------------------------------------------------------|

Repeat intro x1


Ending x4

F|---------------------------------------------------------------------------|
C|---------------------------------------------------------------------------|
G|---13--1313--1312--1212--1210--1010--10------------------------------------|
D|---------------------------------------10--1011--11------------------------|

End on
F|-----------|
C|-----------|
G|---13------|
D|-----------|


| /  slide up
| \  slide down
| h  hammer-on
| p  pull-off
| ~  vibrato
| +  harmonic
| x  Mute note
===============================================================================
Добавлено: 16.12.2015
Вам также может быть интересно:
Другие материалы по этой песне:
  • Аккорды и текст

Страница создана 16.12.2015
http://primanota.ru/their-theyre-there/end-and-end-chords.htm
Привет, Гость.
Предлагаем пройти революционный курс по гитаре.
Подарок от PrimaNota.Ru, забирай!