PrimaNota.ru - самый крупный в мире бесплатный архив песенных текстов, аккордов, табулатур и нот


Their Theyre There - Concession Speech Writer - бас-таба, видео

Регистрация Запомнить меня
Войти через:  Facebook Google Twitter Vk Yandex Mail.ru

Their Theyre There - Concession Speech Writer - бас-таба, видео

Печатать
Просмотров: 122
Уроки эстрадного вокала в Санкт-Петербурге
-------------------------------------------------------------------------------
               Concession Speech Writer - Their/ They're/ Their
-------------------------------------------------------------------------------
Tabbed by: Joe H
E-mail: joey2_96@yahoo.com

Another T/T/T bass tab.  The only really difficult part is the verse due to the odd rhythm.

This tab maybe diffcult to read or slightly inaccurate, so if you need help/have corrections feel free to 
email me

Tuning: DGCF

Intro: X1
F|----------------------------------------------------------------------------------------|
C|----------------------------------------3---------3---------10--------8-----------------|
G|--1-1-1---1-1-1---1-1-1---1-1-1---1-1-1-1---1-1-1-1---8-8-8-8---5-5-5-6---8--10/11--3---|
D|----------------------------------------------------------------------------------------|

Verse: X4
F|---------------------------------------------------------------------------|
C|-----3h5p3p0--------3------5-7--8--10--12\---------------------------------|
G|--1-----------3--5-----5--------------------6--8-8/------------------------|
D|------------------------------------------------------1--------------------|

Intro Variation: X1
F|-------------------------------------------------------------------------------|
C|----------------------------------------3---------3---------7--------10--------|
G|--1-1-1---1-1-1---5-5-5---8-8-8---1-1-1-1---1-1-1-1---5-5-5-5---8-8-8-8--10\---|
D|-------------------------------------------------------------------------------|

X4
F|---------------------------------------------------------------------------|
C|-----------8-----------8---------------------------------------------------|
G|--1--1--6-----8---10-------6---8-------------------------------------------|
D|---------------------------------------------------------------------------|

After the break

F|---------------------------------------------------------------------------|
C|---------------------------------------------------------------------------|
G|---------------------------------------------------------------------------|
D|--11-11--13-13-------------------------------------------------------------|

X4
F|---------------------------------------------------------------------------|
C|---------------------------------------------------------------------------|
G|---------8--6--10/1212-----------------------------------------------------|
D|--8--10----------------11-11--13--13---------------------------------------|

Verse again X4

Ending
F|----------------------------------------------------------------------------|
C|-----------------------3----------------------------------------------------|
G|-----6--8-8--10/12--3--1----------------------------------------------------|
D|--1-------------------------------------------------------------------------|








| /  slide up
| \  slide down
| h  hammer-on
| p  pull-off
| ~  vibrato
| +  harmonic
| x  Mute note
===============================================================================
Добавлено: 24.06.2016
Другие материалы по этой песне:
  • Аккорды и текст

Страница создана 24.06.2016
http://primanota.ru/their-theyre-there/concession-speech-writer-chords.htm
Привет, Гость.
Предлагаем пройти революционный курс по гитаре.
Подарок от PrimaNota.Ru, забирай!