PrimaNota.ru - самый крупный в мире бесплатный архив песенных текстов, аккордов, табулатур и нот


Thee Oh Sees - Toe Cutter - Thumb Buster - таба, бас-таба, видео

Регистрация Запомнить меня
Войти через:  Facebook Google Twitter Vk Yandex Mail.ru

Thee Oh Sees - Toe Cutter - Thumb Buster - таба, бас-таба, видео

Печатать
Просмотров: 300
-------------------------------------------------------------------------------
                             Toe Cutter-Thumb Buster - Thee Oh Sees
-------------------------------------------------------------------------------
Tabbed by: qotsafan1

Tuning: Drop D

Chorus
e|------------------------------------------|
B|------------------------------------------|
G|------------------------------------------|
D|------------------------------------------|
A|------------------------------------------|
D|-1--5--8-8-8\-----------------------------|   Three Times

e|------------------------------------------|
B|------------------------------------------|
G|------------------------------------------|   Fourth Time
D|------------------------------------------|
A|------------------------------------------|
D|-1--5--8-8-10-10br-10-8-------------------|

Intro Solo
e|---------------------------------------------------------------------------|
B|---------------------------------------------------------------------------|
G|---------------------------------------------------------------------------|
D|-1h3-3-3--1-3-5-5-5--3-5-8-8--5-3-1h3p1-1-1--------------------------------|
A|---------------------------------------------------------------------------|
D|---------------------------------------------------------------------------|

e|---------------------------------------------------------------------------|
B|---------------------------------------------------------------------------|
G|---------------------------------------------------------------------------|
D|-1h3-3-3-1-3-5-5-5-3-5-10-10-8-5-1h3-1-1-----------------------------------|
A|---------------------------------------------------------------------------|
E|---------------------------------------------------------------------------|


Verse has one guitar play the first part of the Chorus palm muted.
The other guitar is just messing around the top of the neck with reverb like this.
e|-/22----------22-----------------------------------------------------------|
B|-----21-21-22--------------------------------------------------------------|
G|---------------------------------------------------------------------------|
D|---------------------------------------------------------------------------|
A|---------------------------------------------------------------------------|
D|---------------------------------------------------------------------------|
Just mess around the top of the neck and you'll be good.

Chorus Riff
e|---------------------------------------------------------------------------|
B|---------------------------------------------------------------------------|
G|---------------------------------------------------------------------------|
D|-5---5---5---5-----5---5---5---5-----5---5---5---5-------------------------|
A|---------------------------------------------------------------------------|
D|---7---7---7---7-----6---6---6---6-----5---5---5---5-----1-3-3-1-----------|
A second guitar comes in and harmonizes with this one but I can't figure that one out




************************************

| /   slide up
| \   slide down
| h   hammer-on
| p   pull-off
| ~   vibrato
| +   harmonic
| x   Mute note
| b   Bend
| pb  Pre-bend
| br  Bend release
| pbr Pre-bend release
| brb Bend release bend

************************************
Добавлено: 29.04.2014
Другие материалы по этой песне:

Страница создана 17.10.2013
http://primanota.ru/thee-oh-sees/toe-cutter-thumb-buster-chords.htm
Привет, Гость.
Предлагаем пройти революционный курс по гитаре.
Подарок от PrimaNota.Ru, забирай!