PrimaNota.ru - самый крупный в мире бесплатный архив песенных текстов, аккордов, табулатур и нот


Thee Oh Sees - Poor Queen - таба, видео

Регистрация Запомнить меня
Войти через:  Facebook Google Twitter Vk Yandex Mail.ru

Thee Oh Sees - Poor Queen - таба, видео

Печатать
Просмотров: 126
Уроки эстрадного вокала в Санкт-Петербурге
-------------------------------------------------------------------------------
                             SONG NAME - Band Name
-------------------------------------------------------------------------------
Tabbed by: Connor K
This is my approximate tab that I threw together in about ten minutes. 

Tuning:


I'm spinning right away, I feel sick and tired of fools on the street today
Who's on the same pages? oh yeah! and who will knock upon my door.
All is right and all is right! A teenage queen is locked up tight tonight
And on the streets they cry hurray! the queen will live to see another day.

She's slipping right away, she feels sick and tired of fools on the street today
She asks where are my sweet xxxxxx, oh yeah! and will they knock upon my door
All is right all is right! little queen she cried herself to sleep last night
But carry on my little queen, the people still love you it would seem.

e|---------------------------------------------------------------------------|
B|---------------------------------------------------------------------------|
G|---------------------------------------------------------------------------|
D|---------------------------------------------------------------------------|
A|---------------------------------------------------------------------------|
D|-7-7--777--7-7-777---5-5-555--2-2--222-------------------------------------|

e|---------------------------------------------------------------------------|
B|---------------------------------------------------------------------------|
G|-7--9-9-9-9-9--7-9-9-9-9-9--9b11--9-9-9-9-9-9--9b11--7-9-7-9-7-9-----------|
D|---------------------------------------------------------------------------|
A|---------------------------------------------------------------------------|
D|---------------------------------------------------------------------------|

e|---------------------------------------------------------------------------|
B|---------------------------------------------------------------------------|
G|---------------------------------------------------------------------------|
D|---------------------------------------------------------------------------|
A|--------7----------------8-----------------7--8--7-------------------------|
D|-7--10-----10---7---10-------10----7---10------------10---8---7------------|

Добавлено: 20.11.2015
Другие материалы по этой песне:
  • Аккорды и текст

Страница создана 20.11.2015
http://primanota.ru/thee-oh-sees/poor-queen-chords.htm
Привет, Гость.
Предлагаем пройти революционный курс по гитаре.
Подарок от PrimaNota.Ru, забирай!