PrimaNota.ru - самый крупный в мире бесплатный архив песенных текстов, аккордов, табулатур и нот


Thee Oh Sees - Minotaur - таба, видео

Регистрация Запомнить меня
Войти через:  Facebook Google Twitter Vk Yandex Mail.ru

Thee Oh Sees - Minotaur - таба, видео

Печатать
Просмотров: 66
BAND: THEE OH SEES
SONG: MINOTAUR
ALBUM: FLOATING COFFIN (2013)
TUNING: STANDARD

This version is combined with the bass.
Notice: The bass player plays it an octave lower, but sounds fine if you want to play it 
on guitar.


Main Part:

e|------------------------------------------------------------------|
B|-------------------2-------2--------------------------------------|
G|----4--------4-----2-------2-------5-------5------8---------------|
D|----3--------3-----2-------2-------5-------5------8---------------|
A|----3--------3--0-------0-------3--3----3--3---6--6---6\5-6-7-----|
E|-1--1--0--1--1--------3---------------3---------------------------|

Solo1:

e|--------------------------3-5-5bˇ-3----------|
B|-----1----1-1-2--1-2-3/5------------6-4p3h4--|
G|--2----2-------------------------------------|
D|---------------------------------------------|
A|---------------------------------------------|
E|---------------------------------------------|

Solo2:

e|--------------------------3-5-5bˇ-3-----------|
B|-----1----1-1-2--1-2-3/5------------6-4--4h5--|
G|--2----2--------------------------------------|
D|----------------------------------------------|
A|----------------------------------------------|
E|----------------------------------------------|

************************************

| ˇ   bend up
| h   hammer-on
| p   pull-off
| b   Bend

************************************
Добавлено: 20.11.2015
Другие материалы по этой песне:
  • Аккорды и текст

Страница создана 20.11.2015
http://primanota.ru/thee-oh-sees/minotaur-chords.htm
Привет, Гость.
Предлагаем пройти революционный курс по гитаре.
Подарок от PrimaNota.Ru, забирай!