PrimaNota.ru - самый крупный в мире бесплатный архив песенных текстов, аккордов, табулатур и нот


Thee Oh Sees - Meat Step Lively - таба, видео

Регистрация Запомнить меня
Войти через:  Facebook Google Twitter Vk Yandex Mail.ru

Thee Oh Sees - Meat Step Lively - таба, видео

Печатать
Просмотров: 90
-------------------------------------------------------------------------------
                             Meat Step Lively - Thee Oh Sees
-------------------------------------------------------------------------------
Tabbed by: Alec
E-mail: guerillahug@gmail.com

Tuning: Standard

Hi this is my first tab, I couldn't really find any Thee Oh Sees tabs online. 


Intro/Verse 

e|---------------------------------------------------------------------------|
B|---------------------------------------------------------------------------|
G|---------------------------------------------------------------------------|
D|-3-3-3--5--5--5--3-3-3--5--5--5--3-3-3-5-5-8-8-10108-8-5--5--5-------------|
A|-3-3-3--5--5--5--3-3-3--5--5--5--3-3-3-5-5-8-8-10108-8-5--5--5-------------|
E|-1-1-1--3--3--3--1-1-1--3--3--3--1-1-1-3-3-6-6-8-8-6-6-3--3--3-------------|

"far from the truth..."

e|---------------------------------------------------------------------------|
B|---------------------------------------------------------------------------|
G|---------------------------------------------------------------------------|
D|-3--3--3--3-3--5--5--5--5-5--3--3--3--3-3--5-5-5-5-8-8-10108-8-5--5--5-----|
A|-3--3--3--3-3--5--5--5--5-5--3--3--3--3-3--5-5-5-5-8-8-10108-8-5--5--5-----|
E|-1--1--1--1-1--3--3--3--3-3--1--1--1--1-1--3-3-3-3-6-6-8-8-6-6-3--3--3-----|

Fill/"Solo"
e|---------------------------------------------------------------------------|
B|---------------------------------------------------------------------------|
G|-----------------------------------0-0-3-3-5/9\5-0-0-0---------------------|
D|-5-3-5-7-6-5-5-5-3-5-7-6-5-5-5-3-5-----------------------------------------|
A|---------------------------------------------------------------------------|
E|---------------------------------------------------------------------------|

The end of the song with flutes or whatever

(Play with heavy muting)

e|---------------------------------------------------------------------------|
B|---------------------------------------------------------------------------|
G|---------------------------------------------------------------------------|
D|---------------------------------------------------------------------------|
A|--------------------------------------------1-1-3-3-1-1--------------------|
E|--1-1-1--3--3--3--1-1-1--3--3--3--1-1-1-3-3-------------3-3-3--------------|




************************************

| /   slide up
| \   slide down
| h   hammer-on
| p   pull-off
| ~   vibrato
| +   harmonic
| x   Mute note
| b   Bend
| pb  Pre-bend
| br  Bend release
| pbr Pre-bend release
| brb Bend release bend

************************************
Добавлено: 07.12.2013
Другие материалы по этой песне:
  • Аккорды и текст

Страница создана 07.12.2013
http://primanota.ru/thee-oh-sees/meat-step-lively-chords.htm
Привет, Гость.
Предлагаем пройти революционный курс по гитаре.
Подарок от PrimaNota.Ru, забирай!