PrimaNota.ru - самый крупный в мире бесплатный архив песенных текстов, аккордов, табулатур и нот


Thee Oh Sees - I Was Denied - аккорды и текст, видео

Регистрация Запомнить меня
Войти через:  Facebook Google Twitter Vk Yandex Mail.ru

Thee Oh Sees - I Was Denied - аккорды и текст, видео

Печатать
Просмотров: 47
I Was Denied
Thee Oh Sees
SONG:   I WAS DENIED
ARTIST: THEE OH SEES
TAB BY: DON CZARSKI
EMAIL:  GUITARZAN7@HOTMAIL.COM

                  I WAS DENIED
                  THEE OH SEES


INTRO: Uh one two uh one two three


    F   Am C          Am G    C   Am G    Am      G F
E ------------------------------------------------------
B ------------------------------------------------------
G ------------------------------------------------------
D ------------------------------------------------------
A ---------3-----3-3-3--------3-3-3---------------------
E -3-3-3-5-------------5-3----------5-3----3-5-3-5-3-1--


    F   Am C          Am G    C   Am G    Am      G F
E ------------------------------------------------------
B ------------------------------------------------------
G ------------------------------------------------------
D ------------------------------------------------------
A ---------3-----3-3-3--------3-3-3---------------------
E -3-3-3-5-------------5-3----------5-3----3-5-3-5-3-1--


VERSE:
(F)           C                     G
 I flew right by and surveyed the scene
(C)       G        Am           F
 I was denied, it felt like a dream
            C                     G
So I flew away, with a friend of mine
(C)          G         Am         F
 I got got fucked up, suffice to say


CHORUS:
             C
La la la la la
             G
La la la la la
             G
La la la la la
             F
La la la la la

             C
La la la la la
             G
La la la la la
             G
La la la la la
             F
La la la la la


INSTRUMENTAL:

    F   Am C          Am G    C   Am G    Am      G F
E ------------------------------------------------------
B ------------------------------------------------------
G ------------------------------------------------------
D ------------------------------------------------------
A ---------3-----3-3-3--------3-3-3---------------------
E -3-3-3-5-------------5-3----------5-3----3-5-3-5-3-1--


    F   Am C          Am G    C   Am G    Am      G F
E ------------------------------------------------------
B ------------------------------------------------------
G ------------------------------------------------------
D ------------------------------------------------------
A ---------3-----3-3-3--------3-3-3---------------------
E -3-3-3-5-------------5-3----------5-3----3-5-3-5-3-1--


VERSE:
(F)           C                     G
 I flew right by and surveyed the scene
(C)       G        Am           F
 I was denied, it felt like a dream
            C                     G
So I flew away, with a friend of mine
(C)          G         Am         F
 I got got fucked up, suffice to say


CHORUS:
             C
La la la la la
             G
La la la la la
             G
La la la la la
             F
La la la la la

             C
La la la la la
             G
La la la la la
             G
La la la la la
             F    
La la la la la
  Dm
(NOISE)


INSTRUMENTAL:

    F   Am C          Am G    C   Am G    Am      G F
E ------------------------------------------------------
B ------------------------------------------------------
G ------------------------------------------------------
D ------------------------------------------------------
A ---------3-----3-3-3--------3-3-3---------------------
E -3-3-3-5-------------5-3----------5-3----3-5-3-5-3-1--


    F   Am C          Am G    C   Am G    Am      G F
E ------------------------------------------------------
B ------------------------------------------------------
G ------------------------------------------------------
D ------------------------------------------------------
A ---------3-----3-3-3--------3-3-3---------------------
E -3-3-3-5-------------5-3----------5-3----3-5-3-5-3-1--


VERSE:
(F)           C                     G
 I flew right by and surveyed the scene
(C)       G        Am           F
 I was denied, it felt like a dream
            C                     G
So I flew away, with a friend of mine
(C)          G         Am         F
 I got got fucked up, suffice to say


CHORUS:
             C
La la la la la
             G
La la la la la
             G
La la la la la
             F
La la la la la

             C
La la la la la
             G
La la la la la
             G
La la la la la
             F  
La la la la la








Добавлено: 20.11.2015
Другие материалы по этой песне:
  • Аккорды и текст

Страница создана 20.11.2015
http://primanota.ru/thee-oh-sees/i-was-denied-chords.htm
Привет, Гость.
Предлагаем пройти революционный курс по гитаре.
Подарок от PrimaNota.Ru, забирай!