PrimaNota.ru - самый крупный в мире бесплатный архив песенных текстов, аккордов, табулатур и нот


Thee Oh Sees - I Come From The Mountain - таба, видео

Регистрация Запомнить меня
Войти через:  Facebook Google Twitter Vk Yandex Mail.ru

Thee Oh Sees - I Come From The Mountain - таба, видео

Печатать
Просмотров: 106
-------------------------------------------------------------------------------
                  I Come From The Mountain - Thee Oh Seees
-------------------------------------------------------------------------------

Tuning: Standard

Intro:

e|---------------------------------------------------------------------------|
B|---------------------------------------------------------------------------|
G|--------------5---------------------------5--------------------------------|
D|--7-7-7-7-7-7---7-7-7-7-7-7-5-7-7-7-7-7-7---7-7-7-7-7-7-5------------------|
A|---------------------------------------------------------------------------|
E|---------------------------------------------------------------------------|

Verse A:
    A                                   Am            A
e|---------------------------------------------------------------------------|
B|---------------------------------------------------------------------------|
G|---------------------------------------------------------------------------|
D|--7-7-7-7-7-7-7-7-7-7-7-7-7-7-7-7-7-7-5-5-5-5-5-5-5-5-7-7-7-7-7-7-7-7-7-7--|
A|---------------------------------------------------------------------------|
E|---------------------------------------------------------------------------|

Chorus:

e|---------------------------------------------------------------------------|
B|---------------------------------------------------------------------------|
G|----5h7-7br-5-------5-7----------------------------------------------------|
D|--7-----------7-7-7--------------------------------------------------------|
A|---------------------------------------------------------------------------|
E|---------------------------------------------------------------------------|

Verse B:
    A                                   G             
e|---------------------------------------------------------------------------|
B|---------------------------------------------------------------------------|
G|---------------------------------------------------------------------------|
D|--7-7-7-7-7-7-7-7-7-7-7-7-7-7-7-7-7-7-5-5-5-5-5-5-5-5-5-5-5-5-5-5-5-5-5-5--|
A|---------------------------------------------------------------------------|
E|---------------------------------------------------------------------------|

Solo (not how it is but what I like to do):

A very similar riff works under the chords of verse B

e|---------------------------------------------------------------------------|
B|---------------------------------------------------------------------------|
G|---------------------------------------------------------------------------|
D|--7b-7b-7b-7b-7-5-2--2h5-2h5-2h5-2h5-2-0-----------------------------------|
A|-----------------------------------------2---------------------------------|
E|---------------------------------------------------------------------------|

e|---------------------------------------------------------------------------|
B|---------------------------------------------------------------------------|
G|---------------------------------------------------------------------------|
D|--7b-7b-7b-7b-7-5-9--2h5-2h5-2h5-2h5-2-0-----------------------------------|
A|-----------------------------------------2---------------------------------|
E|---------------------------------------------------------------------------|


Intro    2x
Verse A
Chorus   4x
Intro    1x
Verse A
Chorus   4x
Verse B
Chorus   4x
Verse B
Chorus   4x
Solo
Verse A
Chorus   4x
Verse B
Chorus   4x
Solo

************************************

| /   slide up
| \   slide down
| h   hammer-on
| p   pull-off
| ~   vibrato
| +   harmonic
| x   Mute note
| b   Bend
| pb  Pre-bend
| br  Bend release
| pbr Pre-bend release
| brb Bend release bend

************************************
Добавлено: 19.07.2015
Другие материалы по этой песне:
  • Аккорды и текст

Страница создана 19.07.2015
http://primanota.ru/thee-oh-sees/i-come-from-mountain-chords.htm
Привет, Гость.
Предлагаем пройти революционный курс по гитаре.
Подарок от PrimaNota.Ru, забирай!