PrimaNota.ru - самый крупный в мире бесплатный архив песенных текстов, аккордов, табулатур и нот


Thee Oh Sees - The Dream - таба, видео

Регистрация Запомнить меня
Войти через:  Facebook Google Twitter Vk Yandex Mail.ru

Thee Oh Sees - The Dream - таба, видео

Печатать
Просмотров: 159
-------------------------------------------------------------------------------
                             The Dream - Thee Oh Sees
-------------------------------------------------------------------------------

Tuning: Whole Step Down (DGCFAd

d|--0------0------0---------0------0--0------0------------------|
A|--5------8------3---------1------3--3------5------------------|
F|--6------9------4---------2------4--4------6------------------|
C|--7------10-----5---------3------5--5------7------------------|
G|--0------0------0---------0------0--0------0------------------|
D|--------------------------------------------------------------|

This next part is kind of hard to explain, but what you do is put your index finger on the 5th fret 
across the top 4 strings. However, only press down on the top string while muting the rest and strumming 
across the 4 strings up & down in a steady rhythm while bending the top string where it's marked.

d|-------------------------------------------------------------|
A|-------------------------------------------------------------|
F|--x---x---x---x---x---x---x---x---x---x---x---x---x---x---x--|
C|--x---x---x---x---x---x---x---x---x---x---x---x---x---x---x--| x2
G|--x---x---x---x---x---x---x---x---x---x---x---x---x---x---x--|
D|--5br-5---5---5---5---5---5---5br-5---5---5---5---5---5---5--|

Strum this:
d|--0------0------0-----------0------0------0------------------|
A|--5------8------3-----------1------3------5------------------|
F|--6------9------4-----------2------4------6------------------|
C|--7------10-----5-----------3------5------7------------------|
G|--0------0------0-----------0------0------0------------------|
D|-------------------------------------------------------------|

d|-------------------------------------------------------------|
A|-------------------------------------------------------------|
F|--x---x---x---x---x---x---x---x---x---x---x---x---x---x---x--|
C|--x---x---x---x---x---x---x---x---x---x---x---x---x---x---x--| x2
G|--x---x---x---x---x---x---x---x---x---x---x---x---x---x---x--|
D|--5br-5---5---5---5---5---5---5br-5---5---5---5---5---5---5--|

Verse (played twice):

Palm-muted:
d|-------------------------------------------------------------|
A|-------------------------------------------------------------|
F|--x---x---x---x---x---x---x---7---x---7---x---x---x---x---7--|
C|--x---x---x---x---x---x---x---x---x---x---x---x---x---x---x--|
G|--x---x---x---x---x---x---x---x---x---x---x---x---x---x---x--|
D|--5---5---5---5---5---5---5---5---5---5---5---5---5---5---5--|

d|-------------------------------------------------------------|
A|-------------------------------------------------------------|
F|--x---7---x---7---x---7---x---7---x---7---x---7---x---0---0--|
C|--x---x---x---x---x---x---x---x---x---x---x---x---x---0---0--|
G|--x---x---x---x---x---x---x---x---x---x---x---x---x---0---0--|
D|--5---5---5---5---5---5---5---5---5---5---5---5---5---0---0--|

d|----------------------------------0---0---0---0---0---0---0---0--|
A|--1---1---1---1---1---1---1---1---0---0---0---0---0---0---0---0--|
F|--2---2---2---2---2---2---2---2---2---2---2---2---2---2---2---2--|
C|--3---3---3---3---3---3---3---3---2---2---2---2---2---2---2---2--|
G|--3---3---3---3---3---3---3---3---0---0---0---0---0---0---0---0--|
D|--1---1---1---1---1---1---1---1----------------------------------|

d|-------------------------------------------------------------|
A|-------------------------------------------------------------|
F|--x---x---x---x---x---x---x---x---x---x---x---x---x---x---x--|
C|--x---x---x---x---x---x---x---x---x---x---x---x---x---x---x--| x2
G|--x---x---x---x---x---x---x---x---x---x---x---x---x---x---x--|
D|--5br-5---5---5---5---5---5---5br-5---5---5---5---5---5---5--|

I'll see if I can finish it in the future, but I'll leave it like this for now, sorry.


************************************

| /   slide up
| \   slide down
| h   hammer-on
| p   pull-off
| ~   vibrato
| +   harmonic
| x   Mute note
| b   Bend
| pb  Pre-bend
| br  Bend release
| pbr Pre-bend release
| brb Bend release bend

************************************
Добавлено: 20.11.2015
Другие материалы по этой песне:
  • Аккорды и текст

Страница создана 20.11.2015
http://primanota.ru/thee-oh-sees/dream-chords.htm
Привет, Гость.
Предлагаем пройти революционный курс по гитаре.
Подарок от PrimaNota.Ru, забирай!