PrimaNota.ru - самый крупный в мире бесплатный архив песенных текстов, аккордов, табулатур и нот


Thee Oh Sees - Contraption Soul Desert - таба, бас-таба, видео

Регистрация Запомнить меня
Войти через:  Facebook Google Twitter Vk Yandex Mail.ru

Thee Oh Sees - Contraption Soul Desert - таба, бас-таба, видео

Печатать
Просмотров: 126
-------------------------------------------------------------------------------
                     Contraption/Soul Desert - Thee Oh Sees
-------------------------------------------------------------------------------

Tuning: Standard

(0:00 - 0:50)

e|---------------------------------------------------------------------------|
B|---------------------------------------------------------------------------|
G|---------------------------------------------------------------------------|
D|------------------------------6-6-8-8--------------------------------------|
A|--8-8-8-8-8-8-8-8-8-8-8-8-8-8---------8-8-8-8-8-8-8-8-8-8-5-5-5-5-6-6-6-6--|
E|---------------------------------------------------------------------------|

(0:51 - 1:02)

e|---------------------------------------------------------------------------|
B|---------------------------------------------------------------------------|
G|---------------------------------------------------------------------------|
D|--9-9-9-9-9-9-9-8-6---9-9-9-9-9-9-9-8-6---9-9-9-8-6---9-9-9-8-6---9-9-9-9-9|
A|--------------------8-------------------8-----------8-----------8----------|
E|---------------------------------------------------------------------------|

(1:03 - 1:39)

e|---------------------------------------------------------------------------|
B|---------------------------------------------------------------------------|
G|---------------------------------------------------------------------------|
D|------------------------------6-6-8-8--------------------------------------|
A|--8-8-8-8-8-8-8-8-8-8-8-8-8-8---------8-8-8-8-8-8-8-8-8-8-5-5-5-5-6-6-6-6--|
E|---------------------------------------------------------------------------|

(1:40 - 1:51)

e|---------------------------------------------------------------------------|
B|---------------------------------------------------------------------------|
G|---------------------------------------------------------------------------|
D|--9-9-9-9-9-9-9-8-6---9-9-9-9-9-9-9-8-6---9-9-9-8-6---9-9-9-8-6---9-9-9-9-9|
A|--------------------8-------------------8-----------8-----------8----------|
E|---------------------------------------------------------------------------|

(1:52 - 2:02)

e|---------------------------------------------------------------------------|
B|---------------------------------------------------------------------------|
G|---------------------------------------------------------------------------|
D|------------6--------------------------------------------------------------|
A|--8-8-8-8-8----------------------------------------------------------------|
E|---------------------------------------------------------------------------|

(2:03 - 2:27)

e|---------------------------------------------------------------------------|
B|---------------------------------------------------------------------------|
G|---------------------------------------------------------------------------|
D|------------------------------6-6-8-8--------------------------------------|
A|--8-8-8-8-8-8-8-8-8-8-8-8-8-8---------8-8-8-8-8-8-8-8-8-8-5-5-5-5-6-6-6-6--|
E|---------------------------------------------------------------------------|

(2:28 - 2:39)

e|---------------------------------------------------------------------------|
B|---------------------------------------------------------------------------|
G|---------------------------------------------------------------------------|
D|--9-9-9-9-9-9-9-8-6---9-9-9-9-9-9-9-8-6---9-9-9-8-6---9-9-9-8-6---9-9-9-9-9|
A|--------------------8-------------------8-----------8-----------8----------|
E|---------------------------------------------------------------------------|

(2:40 - 2:51)

the 8s are not exact

e|---------------------------------------------------------------------------|
B|---------------------------------------------------------------------------|
G|---------------------------------------------------------------------------|
D|------------------------------------------6-8-9-8--------------------------|
A|--8-8-8-8-8-8-8-8-8-8-8-8-8-8-8-8-8-8-8-8---------8-8-8-8-8-8-8-8-5-5-8-8-8|
E|---------------------------------------------------------------------------|

(2:52 - 3:03)

e|---------------------------------------------------------------------------|
B|---------------------------------------------------------------------------|
G|---------------------------------------------------------------------------|
D|---------------------------------------------------------------------------|
A|--8-8-8-8-8-8-8-8-8-8-8-8-8-8-8-8-8-8-8-8-8-8-8-8-8-8-8-8-8-8-8-8-8-8-8-8--|
E|---------------------------------------------------------------------------|

(3:04 - 3:15)

Soloish part

(3:16 - 3:39)

throw in the occasional riff like in 2:40

e|---------------------------------------------------------------------------|
B|---------------------------------------------------------------------------|
G|---------------------------------------------------------------------------|
D|---------------------------------------------------------------------------|
A|--8-8-8-8-8-8-8-8-8-8-8-8-8-8-8-8-8-8-8-8-8-8-8-8-8-8-8-8-8-8-8-8-8-8-8-8--|
E|---------------------------------------------------------------------------|

(3:40 - 3:51)

e|---------------------------------------------------------------------------|
B|---------------------------------------------------------------------------|
G|---------------------------------------------------------------------------|
D|--9-9-9-9-9-9-9-8-6---9-9-9-9-9-9-9-8-6---9-9-9-8-6---9-9-9-8-6---9-9-9-9-9|
A|--------------------8-------------------8-----------8-----------8----------|
E|---------------------------------------------------------------------------|

(3:52 - 4:15)

throw in the occasional riff like in 2:40

e|---------------------------------------------------------------------------|
B|---------------------------------------------------------------------------|
G|---------------------------------------------------------------------------|
D|---------------------------------------------------------------------------|
A|--8-8-8-8-8-8-8-8-8-8-8-8-8-8-8-8-8-8-8-8-8-8-8-8-8-8-8-8-8-8-8-8-8-8-8-8--|
E|---------------------------------------------------------------------------|

(4:16 - 4:27)

Soloish part

(4:28 - 5:21)

again, soloish part, throw in a few riffs like in 2:40

e|---------------------------------------------------------------------------|
B|---------------------------------------------------------------------------|
G|---------------------------------------------------------------------------|
D|---------------------------------------------------------------------------|
A|--8-8-8-8-8-8-8-8-8-8-8-8-8-8-8-8-8-8-8-8-8-8-8-8-8-8-8-8-8-8-8-8-8-8-8-8--|
E|---------------------------------------------------------------------------|
Добавлено: 19.07.2015
Другие материалы по этой песне:
  • Аккорды и текст

Страница создана 18.11.2013
http://primanota.ru/thee-oh-sees/contraption-soul-desert-chords.htm
Привет, Гость.
Предлагаем пройти революционный курс по гитаре.
Подарок от PrimaNota.Ru, забирай!