PrimaNota.ru - самый крупный в мире бесплатный архив песенных текстов, аккордов, табулатур и нот


Thee Michelle Gun Elephant - Hotel Bronco - таба, видео

Регистрация Запомнить меня
Войти через:  Facebook Google Twitter Vk Yandex Mail.ru

Thee Michelle Gun Elephant - Hotel Bronco - таба, видео

Печатать
Просмотров: 70
-------------------------------------------------------------------------------
                             Hotel Bronco - THEE MICHELLE GUN ELEPHANT
-------------------------------------------------------------------------------
Tabbed by: Henry Morse
E-mail:

Tuning: Standard


Intro Chords:

e|-------------|
B|-8-8-8-8-8-8-|
G|-7-7-7-7-7-7-|
D|-6-6-6-6-6-6-|
A|-7-7-7-7-7-7-|
E|-------------|

Listen to the song to work out the rhythm. Hit the chord 6 times, and choke it after 
each strum. When you hit the last one, hold it and then slide down the neck into the main riff.


Main Riff:


e|---------------------|
B|---------------------|
G|---------------------|
D|---------------------|
A|-0-0-3-5-3-0-0-------|
E|---------------3-0-3-|
   * * * * * * * * * *   - Palm muted

Palm mute this whole riff. Remember to listen to the song to get the rhythm as it can be 
a little tricky.


Guitar Solo:

e|-------------------------------|--------------------------------x10\----|
B|-------5-8~---8-8-8-7-6-5------|-------5-x-8~---8-8-8-7-6--5~---x10\----|
G|-----5--------------------7-5~-|-----5----------------------------------|
D|--/7---------------------------|--/7------------------------------------|
A|-------------------------------|----------------------------------------|
E|-------------------------------|----------------------------------------|


e|-----------------|--------------------------x--5\-|
B|-----------------|--------------------------x--5\-|
G|--r7b-p5---5-----|---------5-7b-7-5~~-------------|
D|---------7---7---|----5-h7------------------------|
A|-----------------|--------------------------------|
E|-----------------|-------------------/7-5~~-------|

e|--------------------------|-----------------------|
B|-----x--7b-----x--5-------|----------------x--5\--|
G|--r5-x--7b--5--x--5-------|--r7b-p5---5----x--5\--|
D|--------------------7-5-7-|---------7---7--x------|
A|--------------------------|-----------------------|
E|--------------------------|-----------------------|


The rest of the song is just the main riff played again.

Hope this helps! I might submit some more TMGE tabs as I work the songs out, but Futoshi 
Abe's style might be a little challenging to put into tab form ;)

I've done a cover of the song here, so you're welcome to listen to it if you'd like to 
hear what these tabs sound like: http://soundcloud.com/bsmoked/tmge-hotel-bronco-cover


************************************

* = Palm Mute
b = Bend
x = Mute
/ = Slide up
\ = Slide down
r = Rake (mute strings, strum them and unmute into the note as you come into it.)
h = Hammer on
p = Pull off

************************************
Добавлено: 24.09.2013
Другие материалы по этой песне:
  • Аккорды и текст

Страница создана 24.09.2013
http://primanota.ru/thee-michelle-gun-elephant/hotel-bronco-chords.htm
Привет, Гость.
Предлагаем пройти революционный курс по гитаре.
Подарок от PrimaNota.Ru, забирай!