PrimaNota.ru - самый крупный в мире бесплатный архив песенных текстов, аккордов, табулатур и нот


Theatre Of Tragedy - Poppaea - аккорды и текст, видео

Регистрация Запомнить меня
Войти через:  Facebook Google Twitter Vk Yandex Mail.ru

Theatre Of Tragedy - Poppaea - аккорды и текст, видео

Печатать
Просмотров: 96
Уроки эстрадного вокала в Санкт-Петербурге
Poppaea
Theatre Of Tragedy
Capo at 2
I started with capo at 2 but the standard tuning could be easier to play if you don't like Gm but then you have 
to change the intro part yourself (sorry!!). I like the sound using capo at 2 more.

[Solo] x2
e|-------------------|-------------------------|-------------------------|-------------------------|
B|---------------3---|---------------------1---|-------------------------|-------------------------|
G|-------2-----------|-------------2-----------|-------------------3-----|------------------3----2-|
D|0------------------|------0------------------|------------3------------|------------3------------|
A|-------------------|-------------------------|------5------------------|------5------------------|
E|-------------------|-------------------------|-------------------------|-------------------------|

[Solo]
Gm                  Dm       A A7  x6


[Verse]
Dm                  Gm               A7
Dream of a funeral, blest temptress - behest me!
Dm                       Gm               A7
A funeral thou'lt hark, swarth murderess - the Devil,
Dm                          Gm     A7       
Thine feral grith with me, Poppaea, be Hell's hap
Dm                            Gm      A7
Waylaid the beldame bawd, the niggard: Laughing tragedy.


[Chorus]
Gm                   Dm        A A7
And the wench doth bawdness to blow,
Gm
Stay my adamant -
Dm         A A7          Gm                Dm           A A7  
Suffer me to transfix .. to transfix thee: to transfix thee:
Gm                    
Let me dawt thine twain -
     Dm       A  
And, twine 'hem apart.


[Solo]
e|-------------------|-------------------------|-------------------------|-------------------------|
B|---------------3---|---------------------1---|-------------------------|-------------------------|
G|-------2-----------|-------------2-----------|-------------------3-----|------------------3----2-|
D|0------------------|------0------------------|------------3------------|------------3------------|
A|-------------------|-------------------------|------5------------------|------5------------------|
E|-------------------|-------------------------|-------------------------|-------------------------|

Dm                  Gm       A7  x4


[Verse]
Dm                    Gm        A7
Of marrow, do na mell; I am Morelle -
Dm                    Gm       A7
The bosom'd Titivil; travail me; fain,
Dm                       Gm           A7
Subdue me with thine lote in oneness - make haste yet,'
Dm                     Gm        A7
Displode me in a font - Poppaea, do what thou wilt.


[Chorus]
Gm                   Dm        A A7
And the wench doth bawdness to blow,
Gm
Stay my adamant -
Dm         A A7          Gm                Dm           A A7  
Suffer me to transfix .. to transfix thee: to transfix thee:
Gm                    
Let me dawt thine twain -
     Dm       A  
And, twine 'hem apart.


[Solo]
Dm                  Gm       A7  x2

Gm        A7         Dm          A    A7  A
Poppaea.. poppaea..  poppaea..  poppaea.. (Strum the last A continuously like 16 times)

[Chorus]
Gm                   Dm        A A7
And the wench doth bawdness to blow,
Gm
Stay my adamant -
Dm         A A7          Gm                Dm           A A7  
Suffer me to transfix .. to transfix thee: to transfix thee:
Gm                    
Let me dawt thine twain -
     Dm       A  
And, twine 'hem apart.

[Solo]
Dm                  Gm       A7  x3
Dm                  Gm       A7  A7 A7



Enjoy!
Добавлено: 23.06.2016
Другие материалы по этой песне:

Страница создана 11.07.2012
http://primanota.ru/theatre-of-tragedy/poppaea-chords.htm
Привет, Гость.
Предлагаем пройти революционный курс по гитаре.
Подарок от PrimaNota.Ru, забирай!