PrimaNota.ru - самый крупный в мире бесплатный архив песенных текстов, аккордов, табулатур и нот


Theatre Of Tragedy - On Whom The Moon Doth Shine - аккорды и текст, видео

Регистрация Запомнить меня
Войти через:  Facebook Google Twitter Vk Yandex Mail.ru

Theatre Of Tragedy - On Whom The Moon Doth Shine - аккорды и текст, видео

Печатать
Просмотров: 72
Уроки эстрадного вокала в Санкт-Петербурге
Авторы музыки: Theatre of Tragedy
Авторы текста: Raymond I. Rohonyi
On Whom The Moon Doth Shine
Theatre Of Tragedy
"On Whom the Moon Doth Shine"
Theatre of Tragedy
Velvet Darkness They Fear (1996)


Intro:

     H        H           H        Q    Q       Q    Q    Q    Q     
E||--------------------|---------------------|----------------------|
B||--------------------|---------------------|----------------------|
G||--------------------|---------------------|----------------------|
D||--------------------|----------------3----|--2----3----2----0----|
A||--0--------0--------|--3--------3---------|----------------------|
E||--------------------|---------------------|----------------------|


  Q    Q    H           H        H           H        Q    Q     
---------------------|--------------------|---------------------|
---------------------|--------------------|---------------------|
---------------------|--------------------|---------------------|
--2----0----2--------|--------------------|----------------3----|
---------------------|--0--------0--------|--3--------3---------|
---------------------|--------------------|---------------------|


  Q    Q    Q    Q       Q    Q    H          
----------------------|---------------------||
----------------------|---------------------||
----------------------|--0----0----2--------||
--2----3----2----3----|---------------------||
----------------------|---------------------||


Am         C           Em
"O soft embalmer of ye still midnight,
Am        C       Em    G
Allow me thee to adown,
   Am             C        Em
Of any sort thou fancieth;
      Am          C       Em        G
Each holdeth its own fancy, I say -

Am       C           Em       G
Yet the pleasure we partake in
Am         C       Em         G
Was caus'd by the fang'd grin,
Am        C     Em              G
Save!, do I for him anger hold?
Am       C         Em    G
Nay - I knew I was fey!"

Am              C    Em
"Had I what it taketh I would do;
Am C  Em            G
I sense - I cannot sense,
Am C Em          
I am - yet! I am not -
Am                C
Once I kiss'd the image
        Em              G
Of the Seven Angels of Death..."

Am       C   Em       G
"Yet as thou so didst,
Am           C          Em 
On my lips a kiss landéd,
G   Am        C              Em 
And with the shadows blendéd
     G    Am    Em          G    
The tendermost silken mourn;

Gm 
    Eb        Cm     Bb     Gm Eb Cm Bb
In which the light hidden is -
    Gm             Eb    
Yon Hell's brazen doors
Cm             Bb           Gm Eb Cm Bb
Wrothfully it trieth to push."
Gm
       Eb      Cm          Bb
"Then, lo! the Black Death,
Gm         Eb                 Cm      Bb
Serpent-like 'twixt the breasts crept;

Gm            Eb              Cm
Hush'd with a gasp of life's breath,    
     Bb          Gm   Eb         Cm  Bb
Together red tears we wept - in vain,
    Gm            Eb          Cm      Bb
And pass'd the procession of dancers dead -
       Gm           Eb  Cm       Bb
As in darkness were we lock'd in wed."

Gm 
  Eb         Cm     Bb             Gm
I kiss'd the Seven Angels of Death."
        Eb            Cm   Bb
"And Hell open'd its doors,
    Gm        Eb
Yet what was 'fore my eyes
Cm             Bb             Gm
But if not the brightest light."
           Eb          Cm  Bb           Dm           
"But if not, but if not the  brightest light." 

( D5 B5 A5 G5 )

Добавлено: 23.06.2016
Другие материалы по этой песне:
  • Аккорды и текст

Страница создана 28.03.2012
http://primanota.ru/theatre-of-tragedy/on-whom-the-moon-doth-shine-chords.htm
Привет, Гость.
Предлагаем пройти революционный курс по гитаре.
Подарок от PrimaNota.Ru, забирай!