PrimaNota.ru - самый крупный в мире бесплатный архив песенных текстов, аккордов, табулатур и нот


Thea Gilmore - Red White And Black - таба, видео

Регистрация Запомнить меня
Войти через:  Facebook Google Twitter Vk Yandex Mail.ru

Thea Gilmore - Red White And Black - таба, видео

Печатать
Просмотров: 102
Thea Gilmore - Red White and Black

From the album 'Harpo's Ghost' (2006)
                Written by Gilmore
                Universal Music A/S (2008)

Tabbed by: TheCutter





INTRO:

    F                                 C
e|--------1-------------1-----------|-------0---------------0-----------|
B|------1-------------1---1---------|-----1---1-----------1---1---------|
G|----2-----2---2---2-------2---0---|---0-------0---0---0-------0---2---| x2
D|----------------------------------|-----------------------------------|
A|----------------------------------|-3-----------3---3-----------3-----|
E|--1---------1---1-----------1-----|-----------------------------------|


VERSE:

    F                                 C
e|--------1-------------1-----------|-------0---------------0-----------|
B|------1-------------1---1---------|-----1---1-----------1---1---------|
G|----2-----2---2---2-------2---0---|---0-------0---0---0-------0---2---| x2
D|----------------------------------|-----------------------------------|
A|----------------------------------|-3-----------3---3-----------3-----|
E|--1---------1---1-----------1-----|-----------------------------------|

                  Your shadow has grown longer
                  The wind is at your back


    F                                 C
e|--------1-------------1-----------|-------0---------------0-------0---|
B|------1-------------1---1---------|-----1---1-----------1-------1-----|
G|----2-----2---2---2-------2---0---|---0-------0---0---0-------0-------|
D|----------------------------------|-----------------------------------|
A|----------------------------------|-3-----------3---3-------2---------|
E|--1---------1---1-----------1-----|-----------------------------------|

                  They dressed you up so pretty...


    Am              F       G         C
e|--------0-------------1-----------|-------0---------------0-----------|
B|------1---1---------1---1-----3---|-----1---1-----------1---1---------|
G|----2-------2---2-----------0---0-|---0-------0---0---0-------0---2---|
D|------------------3-------0-------|-----------------------------------|
A|--0-----------0-------------------|-3-----------3---3-----------3-----|
E|----------------------------------|-----------------------------------|

                   In red, white and black


VERSE 2: (Repeat the previous verse progression, albeit the following lyrics:)

Roll the sixes gently
Consult the zodiac

The colours of the century...

Are red, white and black


CHORUS:

    F                                 C
e|--------1-------------1-----------|-------0---------------0-----------|
B|------1-------------1---1---------|-----1---1-----------1---1---------|
G|----2-----2---2---2-------2---0---|---0-------0---0---0-------0---2---|
D|----------------------------------|-----------------------------------|
A|----------------------------------|-3-----------3---3-----------3-----|
E|--1---------1---1-----------1-----|-----------------------------------|

              And we can all hear it coming


    F                                 C
e|--------1-------------1-----------|-------0---------------0-------0---|
B|------1-------------1---1---------|-----1---1-----------1-------1-----|
G|----2-----2---2---2-------2---0---|---0-------0---0---0-------0-------|
D|----------------------------------|-----------------------------------|
A|----------------------------------|-3-----------3---3-------2---------|
E|--1---------1---1-----------1-----|-----------------------------------|

              And we all      know    why...


    Am                                  F
e|--------0---------------0----------|--------1-------------1-----------|
B|------1---1-----------1---1--------|------1-------------1---1---------|
G|----2-------2---2---2-------2---2--|----2-----2---2---2-------2---0---|
D|-----------------------------------|----------------------------------|
A|--0-----------0---0-----------0----|----------------------------------|
E|-----------------------------------|--1---------1---1-----------1-----|

                    So gather   your  children              And take the


    G                                   F
e|--------3---------------3----------|--------1-------------1-----------|
B|------3---3-----------3---3--------|------1-------------1---1---------|
G|----0-------0---0---0-------0---0--|----2-----2---2---2-------2---0---|
D|-----------------------------------|----------------------------------|
A|-----------------------------------|----------------------------------|
E|--3-----------3---3-----------3----|--1---------1---1-----------1-----|

    last train          to                the   sky...


   C
e|-------0---------------0-----------|
B|-----1---1-----------1---1---------|
G|---0-------0---0---0-------0---0---|
D|-----------------------------------|
A|-3-----------3---3-----------3-----|
E|-----------------------------------|


VERSE 3: (Repeat verse progression)

Well, call me to the promise
And call me to the track

And call me a deserter...

Of red, white and black


CHORUS 2: (Repeat the chorus)

And we can all hear it coming
And we all know why
So gather your children
And take the last train to the sky...


VERSE 4: (Repeat verse progression until indicated otherwise)

The last tequila sunrise
The last pink Cadillac

They've painted out this rainbow...


    Am              F       G         C
e|--------0-------------1-----------|-------0---------------0-------0---|
B|------1---1---------1---1-----3---|-----1---1-----------1-------1-----|
G|----2-------2---2-----------0---0-|---0-------0---0---0-------0-------|
D|------------------3-------0-------|-----------------------------------|
A|--0-----------0-------------------|-3-----------3---3-------2---------|
E|----------------------------------|-----------------------------------|

                In red,    white and black...


OUTRO:

    Am              F       G         C
e|--------0-------------1-----------|-------0---------------0-------0---|
B|------1---1---------1---1-----3---|-----1---1-----------1-------1-----|
G|----2-------2---2-----------0---0-|---0-------0---0---0-------0-------|
D|------------------3-------0-------|-----------------------------------|
A|--0-----------0-------------------|-3-----------3---3-------2---------|
E|----------------------------------|-----------------------------------|

                In red,    white and black...


    Am              F       G         C
e|--------0-------------1-----------|---------0-------------------|
B|------1---1---------1---1-----3---|------1-----1----------------|
G|----2-------2---2-----------0---0-|---0-----------0-----0-------|
D|------------------3-------0-------|-----------------------------|
A|--0-----------0-------------------|-3----------------3------3---|
E|----------------------------------|-----------------------------|

                It's red, white and black...

-------------------------------------------------------------------------

CHORDS:

    F        C        Am      G
  133211   x32010   x02210  320033 

Добавлено: 28.04.2012
Другие материалы по этой песне:
  • Аккорды и текст

Страница создана 28.04.2012
http://primanota.ru/thea-gilmore/red-white-and-black-chords.htm
Привет, Гость.
Предлагаем пройти революционный курс по гитаре.
Подарок от PrimaNota.Ru, забирай!