PrimaNota.ru - самый крупный в мире бесплатный архив песенных текстов, аккордов, табулатур и нот


Thea Gilmore - Pirate Moon - таба, видео

Регистрация Запомнить меня
Войти через:  Facebook Google Twitter Vk Yandex Mail.ru

Thea Gilmore - Pirate Moon - таба, видео

Печатать
Просмотров: 114
Уроки эстрадного вокала в Санкт-Петербурге
Name: Andy Fullwood   Date 10/11/03
Corrections to: andy.fullwood@ntlworld.com

The following tab represents my own work:

Artist and Writer: Thea Gilmore
Album: Avalanche
Song: Pirate Moon


Thanks to Thea's guitar technician who gave me the altered tuning.

Although this sounds correct to me I haven't got much experience in
tabbing (this is my first!) G please feel free to mess about with this.

                               Pirate Moon

This is a finger picking track played with the strings tuned to :-

d--------------
C--------------
F--------------
C--------------
G--------------
C--------------

The song uses only four chords, C, Am, F and G The chord shapes are:-

c                                   Am
|x----|-----|-----|-----|-----|     |x----|-----|-----|-----|-----|
|o----|-----|-----|-----|-----|     |o----|-----|-----|-----|-----|
|-----|--*--|-----|-----|-----|     |-----|-----|-----|--*--|-----|
|o----|-----|-----|-----|-----|     |-----|-----|-----|--*--|-----|
|o----|-----|-----|-----|-----|     |-----|--*--|-----|-----|-----|
|o----|-----|-----|-----|-----|     |x----|-----|-----|-----|-----|


F                                   G
|x----|-----|-----|-----|-----|     |x----|-----|-----|-----|-----|
|o----|-----|-----|-----|-----|     |-----|--*--|-----|-----|-----|
|o----|-----|-----|-----|-----|     |-----|--*--|-----|-----|-----|
|o----|-----|-----|-----|-----|     |-----|--*--|-----|-----|-----|
|x----|-----|-----|-----|-----|     |o----|-----|-----|-----|-----|
|-----|-----|-----|-----|--*--|     |x----|-----|-----|-----|-----|


o=open  x=don't play.


Introduction

C-shape                           Am-shape

d--------------------------------------------------------------------R
C-------0---------------0---------------0---------------0------------E
F-----2---2-----------2---2-----------4---4-----------4---4----------P
C---0-------0---0---0-------0---0---4-------4---4---4-------4---4----E
G---------------------------------2-----------2---2-----------2------A
C-0-----------0---0-----------0--------------------------------------T


C-shape                           Am-shape
                          Up in the midnight blue  
d--------------------------------------------------------------------
C-------0---------------0---------------0---------------0------------
F-----2---2-----------2---2-----------4---4-----------4---4----------
C---0-------0---0---0-------0---0---4-------4---4---4-------4---4----
G---------------------------------2-----------2---2-----------2------
C-0-----------0---0-----------0--------------------------------------

C-shape                           Am-shape
                          That's where I'm going to      Up where the
d--------------------------------------------------------------------
C-------0---------------0---------------0---------------0------------
F-----2---2-----------2---2-----------4---4-----------4---4----------
C---0-------0---0---0-------0---0---4-------4---4---4-------4---4----
G---------------------------------2-----------2---2-----------2------
C-0-----------0---0-----------0--------------------------------------

F-shape                                         G-shape
sirens scream             Through ev'ry misplaced dream   Up with the
d--------------------------------------------------------------------
C-------0---------------0---------------0---------------2------------
F-----0---0-----------0---0-----------0---0-----------2---2----------
C---O-------0---0---0-------O---0---0-------0---0---2-------2---2----
G-------------------------------------------------0-----------0------
C-5-----------5---5-----------5---5-----------5----------------------

Am-shape                           C-shape
pirate moon
d--------------------------------------------------------------------
C-------0---------------0---------------0---------------0------------
F-----4---4-----------4---4-----------2---2-----------2---2----------
C---4-------4---4---4-------4---4---0-------0---0---0-------0---0----
G-2-----------2---2-----------2--------------------------------------
C---------------------------------0-----------0---0-----------0------

etc.

Chorus follows same arpeggio pattern but with the slightly different
chord order of C Am F and G



Enjoy.

     
Добавлено: 27.07.2013
Другие материалы по этой песне:
  • Аккорды и текст

Страница создана 27.07.2013
http://primanota.ru/thea-gilmore/pirate-moon-chords.htm
Привет, Гость.
Предлагаем пройти революционный курс по гитаре.
Подарок от PrimaNota.Ru, забирай!